  0
SECTION
  2
HEADER
  9
$ACADVER
  1
AC1014
  9
$ACADMAINTVER
 70
     9
  9
$DWGCODEPAGE
  3
ANSI_1252
  9
$INSBASE
 10
18.08098437059653
 20
26.79948534513133
 30
0.0
  9
$EXTMIN
 10
18.08098437059653
 20
21.79948534513133
 30
0.0
  9
$EXTMAX
 10
58.70598437059654
 20
39.92448534513133
 30
0.0
  9
$LIMMIN
 10
0.0
 20
0.0
  9
$LIMMAX
 10
12.0
 20
9.0
  9
$ORTHOMODE
 70
     1
  9
$REGENMODE
 70
     1
  9
$FILLMODE
 70
     1
  9
$QTEXTMODE
 70
     0
  9
$MIRRTEXT
 70
     1
  9
$DRAGMODE
 70
     2
  9
$LTSCALE
 40
1.0
  9
$OSMODE
 70
    45
  9
$ATTMODE
 70
     1
  9
$TEXTSIZE
 40
0.15
  9
$TRACEWID
 40
0.05
  9
$TEXTSTYLE
  7
STANDARD
  9
$CLAYER
  8
MEASURED_PANEL
  9
$CELTYPE
  6
BYLAYER
  9
$CECOLOR
 62
     0
  9
$CELTSCALE
 40
1.0
  9
$DELOBJ
 70
     1
  9
$DISPSILH
 70
     0
  9
$DIMSCALE
 40
1.0
  9
$DIMASZ
 40
0.18
  9
$DIMEXO
 40
0.0625
  9
$DIMDLI
 40
0.38
  9
$DIMRND
 40
0.0
  9
$DIMDLE
 40
0.0
  9
$DIMEXE
 40
0.18
  9
$DIMTP
 40
0.0
  9
$DIMTM
 40
0.0
  9
$DIMTXT
 40
0.18
  9
$DIMCEN
 40
0.09
  9
$DIMTSZ
 40
0.0
  9
$DIMTOL
 70
     0
  9
$DIMLIM
 70
     0
  9
$DIMTIH
 70
     1
  9
$DIMTOH
 70
     1
  9
$DIMSE1
 70
     0
  9
$DIMSE2
 70
     0
  9
$DIMTAD
 70
     0
  9
$DIMZIN
 70
     0
  9
$DIMBLK
  1

  9
$DIMASO
 70
     1
  9
$DIMSHO
 70
     1
  9
$DIMPOST
  1

  9
$DIMAPOST
  1

  9
$DIMALT
 70
     0
  9
$DIMALTD
 70
     2
  9
$DIMALTF
 40
25.4
  9
$DIMLFAC
 40
1.0
  9
$DIMTOFL
 70
     0
  9
$DIMTVP
 40
0.0
  9
$DIMTIX
 70
     0
  9
$DIMSOXD
 70
     0
  9
$DIMSAH
 70
     0
  9
$DIMBLK1
  1

  9
$DIMBLK2
  1

  9
$DIMSTYLE
  2
STANDARD
  9
$DIMCLRD
 70
     0
  9
$DIMCLRE
 70
     0
  9
$DIMCLRT
 70
     0
  9
$DIMTFAC
 40
1.0
  9
$DIMGAP
 40
0.09
  9
$DIMJUST
 70
     0
  9
$DIMSD1
 70
     0
  9
$DIMSD2
 70
     0
  9
$DIMTOLJ
 70
     1
  9
$DIMTZIN
 70
     0
  9
$DIMALTZ
 70
     0
  9
$DIMALTTZ
 70
     0
  9
$DIMFIT
 70
     3
  9
$DIMUPT
 70
     0
  9
$DIMUNIT
 70
     2
  9
$DIMDEC
 70
     4
  9
$DIMTDEC
 70
     4
  9
$DIMALTU
 70
     2
  9
$DIMALTTD
 70
     2
  9
$DIMTXSTY
  7
STANDARD
  9
$DIMAUNIT
 70
     0
  9
$LUNITS
 70
     2
  9
$LUPREC
 70
     4
  9
$SKETCHINC
 40
0.1
  9
$FILLETRAD
 40
1.0
  9
$AUNITS
 70
     0
  9
$AUPREC
 70
     0
  9
$MENU
  1
.
  9
$ELEVATION
 40
0.0
  9
$PELEVATION
 40
0.0
  9
$THICKNESS
 40
0.0
  9
$LIMCHECK
 70
     0
  9
$BLIPMODE
 70
     0
  9
$CHAMFERA
 40
0.38
  9
$CHAMFERB
 40
0.38
  9
$CHAMFERC
 40
1.0
  9
$CHAMFERD
 40
0.0
  9
$SKPOLY
 70
     0
  9
$TDCREATE
 40
2452885.538832453
  9
$TDUPDATE
 40
2452935.641571979
  9
$TDINDWG
 40
0.8195272338
  9
$TDUSRTIMER
 40
0.8195256134
  9
$USRTIMER
 70
     1
  9
$ANGBASE
 50
0.0
  9
$ANGDIR
 70
     0
  9
$PDMODE
 70
     0
  9
$PDSIZE
 40
0.0
  9
$PLINEWID
 40
0.0
  9
$COORDS
 70
     2
  9
$SPLFRAME
 70
     0
  9
$SPLINETYPE
 70
     6
  9
$SPLINESEGS
 70
     8
  9
$ATTDIA
 70
     0
  9
$ATTREQ
 70
     1
  9
$HANDLING
 70
  4097
  9
$HANDSEED
  5
166
  9
$SURFTAB1
 70
     6
  9
$SURFTAB2
 70
     6
  9
$SURFTYPE
 70
     6
  9
$SURFU
 70
     6
  9
$SURFV
 70
     6
  9
$UCSNAME
  2

  9
$UCSORG
 10
0.0
 20
0.0
 30
0.0
  9
$UCSXDIR
 10
1.0
 20
0.0
 30
0.0
  9
$UCSYDIR
 10
0.0
 20
1.0
 30
0.0
  9
$PUCSNAME
  2

  9
$PUCSORG
 10
0.0
 20
0.0
 30
0.0
  9
$PUCSXDIR
 10
1.0
 20
0.0
 30
0.0
  9
$PUCSYDIR
 10
0.0
 20
1.0
 30
0.0
  9
$USERI1
 70
     0
  9
$USERI2
 70
     0
  9
$USERI3
 70
     0
  9
$USERI4
 70
     0
  9
$USERI5
 70
     0
  9
$USERR1
 40
0.0
  9
$USERR2
 40
0.0
  9
$USERR3
 40
0.0
  9
$USERR4
 40
0.0
  9
$USERR5
 40
0.0
  9
$WORLDVIEW
 70
     1
  9
$SHADEDGE
 70
     3
  9
$SHADEDIF
 70
    70
  9
$TILEMODE
 70
     1
  9
$MAXACTVP
 70
    64
  9
$PINSBASE
 10
0.0
 20
0.0
 30
0.0
  9
$PLIMCHECK
 70
     0
  9
$PEXTMIN
 10
1.000000000000000E+20
 20
1.000000000000000E+20
 30
1.000000000000000E+20
  9
$PEXTMAX
 10
-1.000000000000000E+20
 20
-1.000000000000000E+20
 30
-1.000000000000000E+20
  9
$PLIMMIN
 10
0.0
 20
0.0
  9
$PLIMMAX
 10
12.0
 20
9.0
  9
$UNITMODE
 70
     0
  9
$VISRETAIN
 70
     1
  9
$PLINEGEN
 70
     0
  9
$PSLTSCALE
 70
     1
  9
$TREEDEPTH
 70
  3020
  9
$PICKSTYLE
 70
     1
  9
$CMLSTYLE
  2
STANDARD
  9
$CMLJUST
 70
     0
  9
$CMLSCALE
 40
1.0
  9
$PROXYGRAPHICS
 70
     1
  9
$MEASUREMENT
 70
     0
  0
ENDSEC
  0
SECTION
  2
CLASSES
  0
CLASS
  1
ACDBDICTIONARYWDFLT
  2
AcDbDictionaryWithDefault
  3
AutoCAD 2000
 90
        0
280
     0
281
     0
  0
CLASS
  1
ACDBPLACEHOLDER
  2
AcDbPlaceHolder
  3
AutoCAD 2000
 90
        0
280
     0
281
     0
  0
CLASS
  1
LAYOUT
  2
AcDbLayout
  3
AutoCAD 2000
 90
        0
280
     0
281
     0
  0
CLASS
  1
RASTERVARIABLES
  2
AcDbRasterVariables
  3
ISM
 90
        0
280
     0
281
     0
  0
CLASS
  1
IMAGEDEF
  2
AcDbRasterImageDef
  3
ISM
 90
        0
280
     0
281
     0
  0
CLASS
  1
IMAGEDEF_REACTOR
  2
AcDbRasterImageDefReactor
  3
ISM
 90
        1
280
     0
281
     0
  0
CLASS
  1
IMAGE
  2
AcDbRasterImage
  3
ISM
 90
      127
280
     0
281
     1
  0
CLASS
  1
DICTIONARYVAR
  2
AcDbDictionaryVar
  3
AutoCAD 2000
 90
        0
280
     0
281
     0
  0
CLASS
  1
SORTENTSTABLE
  2
AcDbSortentsTable
  3
AutoCAD 2000
 90
        0
280
     0
281
     0
  0
CLASS
  1
LONG_TRANSACTION
  2
AcDbLongTransaction
  3
AutoCAD 2000
 90
        0
280
     0
281
     0
  0
CLASS
  1
LWPOLYLINE
  2
AcDbPolyline
  3
AutoCAD 2000
 90
        0
280
     0
281
     1
  0
CLASS
  1
HATCH
  2
AcDbHatch
  3
AutoCAD 2000
 90
        0
280
     0
281
     1
  0
CLASS
  1
XRECORD
  2
AcDbXrecord
  3
AutoCAD 2000
 90
        0
280
     0
281
     0
  0
ENDSEC
  0
SECTION
  2
TABLES
  0
TABLE
  2
VPORT
  5
1C
330
0
100
AcDbSymbolTable
 70
     2
  0
VPORT
  5
142
330
1C
100
AcDbSymbolTableRecord
100
AcDbViewportTableRecord
  2
*ACTIVE
 70
     0
 10
0.0
 20
0.0
 11
1.0
 21
1.0
 12
37.14030664552814
 22
29.85846913168554
 13
0.0
 23
0.0
 14
0.125
 24
0.125
 15
0.125
 25
0.125
 16
0.0
 26
0.0
 36
1.0
 17
0.0
 27
0.0
 37
0.0
 40
31.76974178290334
 41
1.462406015037593
 42
50.0
 43
0.0
 44
0.0
 50
0.0
 51
0.0
 71
     0
 72
   100
 73
     1
 74
     3
 75
     0
 76
     0
 77
     0
 78
     0
  0
ENDTAB
  0
TABLE
  2
LTYPE
  5
17
330
0
100
AcDbSymbolTable
 70
     1
  0
LTYPE
  5
18
330
17
100
AcDbSymbolTableRecord
100
AcDbLinetypeTableRecord
  2
BYBLOCK
 70
     0
  3

 72
    65
 73
     0
 40
0.0
  0
LTYPE
  5
19
330
17
100
AcDbSymbolTableRecord
100
AcDbLinetypeTableRecord
  2
BYLAYER
 70
     0
  3

 72
    65
 73
     0
 40
0.0
  0
LTYPE
  5
A
330
17
100
AcDbSymbolTableRecord
100
AcDbLinetypeTableRecord
  2
CONTINUOUS
 70
     0
  3
Solid line
 72
    65
 73
     0
 40
0.0
  0
ENDTAB
  0
TABLE
  2
LAYER
  5
12
330
0
100
AcDbSymbolTable
 70
     2
  0
LAYER
  5
6
330
12
100
AcDbSymbolTableRecord
100
AcDbLayerTableRecord
  2
0
 70
     0
 62
     7
  6
CONTINUOUS
  0
LAYER
  5
24
330
12
100
AcDbSymbolTableRecord
100
AcDbLayerTableRecord
  2
MEASURED_PANEL
 70
     0
 62
     7
  6
CONTINUOUS
  0
ENDTAB
  0
TABLE
  2
STYLE
  5
13
330
0
100
AcDbSymbolTable
 70
     1
  0
STYLE
  5
14
330
13
100
AcDbSymbolTableRecord
100
AcDbTextStyleTableRecord
  2
STANDARD
 70
     0
 40
0.0
 41
1.0
 50
0.0
 71
     0
 42
0.15
  3
ARIALBD.TTF
  4

1001
ACAD
1000
Arial
1071
 33554466
  0
ENDTAB
  0
TABLE
  2
VIEW
  5
1A
330
0
100
AcDbSymbolTable
 70
     0
  0
ENDTAB
  0
TABLE
  2
UCS
  5
1B
330
0
100
AcDbSymbolTable
 70
     0
  0
ENDTAB
  0
TABLE
  2
APPID
  5
1E
330
0
100
AcDbSymbolTable
 70
     1
  0
APPID
  5
15
330
1E
100
AcDbSymbolTableRecord
100
AcDbRegAppTableRecord
  2
ACAD
 70
     0
  0
ENDTAB
  0
TABLE
  2
DIMSTYLE
  5
1F
330
0
100
AcDbSymbolTable
 70
     1
  0
DIMSTYLE
105
26
330
1F
100
AcDbSymbolTableRecord
100
AcDbDimStyleTableRecord
  2
STANDARD
 70
     0
  3

  4

  5

  6

  7

 40
1.0
 41
0.18
 42
0.0625
 43
0.38
 44
0.18
 45
0.0
 46
0.0
 47
0.0
 48
0.0
140
0.18
141
0.09
142
0.0
143
25.4
144
1.0
145
0.0
146
1.0
147
0.09
 71
     0
 72
     0
 73
     1
 74
     1
 75
     0
 76
     0
 77
     0
 78
     0
170
     0
171
     2
172
     0
173
     0
174
     0
175
     0
176
     0
177
     0
178
     0
270
     2
271
     4
272
     4
273
     2
274
     2
340
14
275
     0
280
     0
281
     0
282
     0
283
     1
284
     0
285
     0
286
     0
287
     3
288
     0
  0
ENDTAB
  0
TABLE
  2
BLOCK_RECORD
  5
1
330
0
100
AcDbSymbolTable
 70
     0
  0
BLOCK_RECORD
  5
2
102
{ACAD_XDICTIONARY
360
3
102
}
330
1
100
AcDbSymbolTableRecord
100
AcDbBlockTableRecord
  2
*MODEL_SPACE
  0
BLOCK_RECORD
  5
E
102
{ACAD_XDICTIONARY
360
164
102
}
330
1
100
AcDbSymbolTableRecord
100
AcDbBlockTableRecord
  2
*PAPER_SPACE
  0
ENDTAB
  0
ENDSEC
  0
SECTION
  2
BLOCKS
  0
BLOCK
  5
5
330
2
100
AcDbEntity
  8
0
100
AcDbBlockBegin
  2
*MODEL_SPACE
 70
     0
 10
0.0
 20
0.0
 30
0.0
  3
*MODEL_SPACE
  1

  0
ENDBLK
  5
B
330
2
100
AcDbEntity
  8
0
100
AcDbBlockEnd
  0
BLOCK
  5
F
330
E
100
AcDbEntity
 67
     1
  8
0
100
AcDbBlockBegin
  2
*PAPER_SPACE
 70
     0
 10
0.0
 20
0.0
 30
0.0
  3
*PAPER_SPACE
  1

  0
ENDBLK
  5
10
330
E
100
AcDbEntity
 67
     1
  8
0
100
AcDbBlockEnd
  0
ENDSEC
  0
SECTION
  2
ENTITIES
  0
LWPOLYLINE
  5
27
330
2
100
AcDbEntity
  8
MEASURED_PANEL
 62
     0
100
AcDbPolyline
 90
        2
 70
     0
 43
0.0
 10
20.58098437059654
 20
28.79948534513133
 10
27.24312939574702
 20
28.79948534513133
  0
LWPOLYLINE
  5
28
330
2
100
AcDbEntity
  8
MEASURED_PANEL
 62
     0
100
AcDbPolyline
 90
        5
 70
     0
 43
0.0
 10
35.83098437059653
 20
28.79948534513133
 10
35.83098437059653
 20
39.92448534513133
 10
42.58098437059653
 20
39.92448534513133
 10
42.58098437059653
 20
28.79948534513133
 10
46.75414636381405
 20
28.79948534513133
  0
LWPOLYLINE
  5
29
330
2
100
AcDbEntity
  8
MEASURED_PANEL
 62
     0
100
AcDbPolyline
 90
        2
 70
     0
 43
0.0
 10
30.64735612657456
 20
39.89764208122842
 10
35.83098437059653
 20
39.92448534513133
  0
LWPOLYLINE
  5
2A
330
2
100
AcDbEntity
  8
MEASURED_PANEL
 62
     0
100
AcDbPolyline
 90
        2
 70
     0
 43
0.0
 10
46.13961261461851
 20
39.89764208122842
 10
42.58098437059653
 20
39.92448534513133
  0
LWPOLYLINE
  5
2B
330
2
100
AcDbEntity
  8
MEASURED_PANEL
 62
     0
100
AcDbPolyline
 90
        4
 70
     0
 43
0.0
 10
36.07875727119388
 20
28.83278083626121
 10
36.08098437059654
 20
39.67448534513133
 10
42.33098437059654
 20
39.67448534513133
 10
42.33098789653963
 20
28.80081310983779
  0
LWPOLYLINE
  5
2C
330
2
100
AcDbEntity
  8
MEASURED_PANEL
 62
     0
100
AcDbPolyline
 90
        5
 70
     0
 43
0.0
 10
19.61004592598774
 20
29.29948534513133
 10
18.08098437059653
 20
29.29948534513133
 10
18.08098437059653
 20
26.79948534513133
 10
18.18098437059654
 20
26.79948534513133
 42
0.3620499351813311
 10
20.58098437059654
 20
28.79948534513133
 42
-1.703169198999323
  0
POINT
  5
2D
330
2
100
AcDbEntity
  8
MEASURED_PANEL
 62
     0
100
AcDbPoint
 10
56.20598437059654
 20
28.79948534513133
 30
0.0
  0
POINT
  5
2E
330
2
100
AcDbEntity
  8
MEASURED_PANEL
 62
     0
100
AcDbPoint
 10
55.20598437059653
 20
28.79948534513133
 30
0.0
  0
LWPOLYLINE
  5
2F
330
2
100
AcDbEntity
  8
MEASURED_PANEL
 62
     0
100
AcDbPolyline
 90
        5
 70
     0
 43
0.0
 10
57.17692281520533
 20
29.29948534513133
 10
58.70598437059654
 20
29.29948534513133
 10
58.70598437059654
 20
26.79948534513133
 10
58.60598437059653
 20
26.79948534513133
 42
-0.3620499351813311
 10
56.20598437059654
 20
28.79948534513133
 42
1.703169198999323
  0
POLYLINE
  5
30
330
2
100
AcDbEntity
  8
MEASURED_PANEL
 62
     0
100
AcDb2dPolyline
 66
     1
 10
0.0
 20
0.0
 30
0.0
  0
VERTEX
  5
31
330
30
100
AcDbEntity
  8
MEASURED_PANEL
 62
     0
100
AcDbVertex
100
AcDb2dVertex
 10
30.64735612657456
 20
39.89764208122842
 30
0.0
  0
VERTEX
  5
32
330
30
100
AcDbEntity
  8
MEASURED_PANEL
 62
     0
100
AcDbVertex
100
AcDb2dVertex
 10
30.01220620570659
 20
39.87687681545051
 30
0.0
  0
VERTEX
  5
33
330
30
100
AcDbEntity
  8
MEASURED_PANEL
 62
     0
100
AcDbVertex
100
AcDb2dVertex
 10
29.47511163585535
 20
39.84973084658276
 30
0.0
  0
VERTEX
  5
34
330
30
100
AcDbEntity
  8
MEASURED_PANEL
 62
     0
100
AcDbVertex
100
AcDb2dVertex
 10
29.02447061906762
 20
39.81734598474476
 30
0.0
  0
VERTEX
  5
35
330
30
100
AcDbEntity
  8
MEASURED_PANEL
 62
     0
100
AcDbVertex
100
AcDb2dVertex
 10
28.6486813573902
 20
39.78086404005608
 30
0.0
  0
VERTEX
  5
36
330
30
100
AcDbEntity
  8
MEASURED_PANEL
 62
     0
100
AcDbVertex
100
AcDb2dVertex
 10
28.33614205286989
 20
39.74142682263632
 30
0.0
  0
VERTEX
  5
37
330
30
100
AcDbEntity
  8
MEASURED_PANEL
 62
     0
100
AcDbVertex
100
AcDb2dVertex
 10
28.07525090755348
 20
39.70017614260504
 30
0.0
  0
VERTEX
  5
38
330
30
100
AcDbEntity
  8
MEASURED_PANEL
 62
     0
100
AcDbVertex
100
AcDb2dVertex
 10
27.85440612348776
 20
39.65825381008183
 30
0.0
  0
VERTEX
  5
39
330
30
100
AcDbEntity
  8
MEASURED_PANEL
 62
     0
100
AcDbVertex
100
AcDb2dVertex
 10
27.66200590271953
 20
39.61680163518627
 30
0.0
  0
VERTEX
  5
3A
330
30
100
AcDbEntity
  8
MEASURED_PANEL
 62
     0
100
AcDbVertex
100
AcDb2dVertex
 10
27.48800195672994
 20
39.5767178929405
 30
0.0
  0
VERTEX
  5
3B
330
30
100
AcDbEntity
  8
MEASURED_PANEL
 62
     0
100
AcDbVertex
100
AcDb2dVertex
 10
27.32856003473759
 20
39.5379267179769
 30
0.0
  0
VERTEX
  5
3C
330
30
100
AcDbEntity
  8
MEASURED_PANEL
 62
     0
100
AcDbVertex
100
AcDb2dVertex
 10
27.18139939539545
 20
39.5001087098304
 30
0.0
  0
VERTEX
  5
3D
330
30
100
AcDbEntity
  8
MEASURED_PANEL
 62
     0
100
AcDbVertex
100
AcDb2dVertex
 10
27.04423929735648
 20
39.46294446803592
 30
0.0
  0
VERTEX
  5
3E
330
30
100
AcDbEntity
  8
MEASURED_PANEL
 62
     0
100
AcDbVertex
100
AcDb2dVertex
 10
26.91479899927366
 20
39.42611459212841
 30
0.0
  0
VERTEX
  5
3F
330
30
100
AcDbEntity
  8
MEASURED_PANEL
 62
     0
100
AcDbVertex
100
AcDb2dVertex
 10
26.79079775979995
 20
39.38929968164279
 30
0.0
  0
VERTEX
  5
40
330
30
100
AcDbEntity
  8
MEASURED_PANEL
 62
     0
100
AcDbVertex
100
AcDb2dVertex
 10
26.66995483758832
 20
39.35218033611398
 30
0.0
  0
VERTEX
  5
41
330
30
100
AcDbEntity
  8
MEASURED_PANEL
 62
     0
100
AcDbVertex
100
AcDb2dVertex
 10
26.54998949129173
 20
39.31443715507694
 30
0.0
  0
VERTEX
  5
42
330
30
100
AcDbEntity
  8
MEASURED_PANEL
 62
     0
100
AcDbVertex
100
AcDb2dVertex
 10
26.42902671694959
 20
39.27576652516465
 30
0.0
  0
VERTEX
  5
43
330
30
100
AcDbEntity
  8
MEASURED_PANEL
 62
     0
100
AcDbVertex
100
AcDb2dVertex
 10
26.30681446014705
 20
39.2359279814023
 30
0.0
  0
VERTEX
  5
44
330
30
100
AcDbEntity
  8
MEASURED_PANEL
 62
     0
100
AcDbVertex
100
AcDb2dVertex
 10
26.18350640385571
 20
39.19469684591318
 30
0.0
  0
VERTEX
  5
45
330
30
100
AcDbEntity
  8
MEASURED_PANEL
 62
     0
100
AcDbVertex
100
AcDb2dVertex
 10
26.05925623104716
 20
39.15184844082055
 30
0.0
  0
VERTEX
  5
46
330
30
100
AcDbEntity
  8
MEASURED_PANEL
 62
     0
100
AcDbVertex
100
AcDb2dVertex
 10
25.934217624693
 20
39.1071580882477
 30
0.0
  0
VERTEX
  5
47
330
30
100
AcDbEntity
  8
MEASURED_PANEL
 62
     0
100
AcDbVertex
100
AcDb2dVertex
 10
25.80854426776481
 20
39.06040111031787
 30
0.0
  0
VERTEX
  5
48
330
30
100
AcDbEntity
  8
MEASURED_PANEL
 62
     0
100
AcDbVertex
100
AcDb2dVertex
 10
25.6823898432342
 20
39.01135282915435
 30
0.0
  0
VERTEX
  5
49
330
30
100
AcDbEntity
  8
MEASURED_PANEL
 62
     0
100
AcDbVertex
100
AcDb2dVertex
 10
25.55590803407275
 20
38.95978856688039
 30
0.0
  0
VERTEX
  5
4A
330
30
100
AcDbEntity
  8
MEASURED_PANEL
 62
     0
100
AcDbVertex
100
AcDb2dVertex
 10
25.42925001024128
 20
38.90552357297374
 30
0.0
  0
VERTEX
  5
4B
330
30
100
AcDbEntity
  8
MEASURED_PANEL
 62
     0
100
AcDbVertex
100
AcDb2dVertex
 10
25.30255688965745
 20
38.84853280632996
 30
0.0
  0
VERTEX
  5
4C
330
30
100
AcDbEntity
  8
MEASURED_PANEL
 62
     0
100
AcDbVertex
100
AcDb2dVertex
 10
25.17596727722812
 20
38.7888311531991
 30
0.0
  0
VERTEX
  5
4D
330
30
100
AcDbEntity
  8
MEASURED_PANEL
 62
     0
100
AcDbVertex
100
AcDb2dVertex
 10
25.04961977786022
 20
38.72643349983121
 30
0.0
  0
VERTEX
  5
4E
330
30
100
AcDbEntity
  8
MEASURED_PANEL
 62
     0
100
AcDbVertex
100
AcDb2dVertex
 10
24.92365299646058
 20
38.66135473247632
 30
0.0
  0
VERTEX
  5
4F
330
30
100
AcDbEntity
  8
MEASURED_PANEL
 62
     0
100
AcDbVertex
100
AcDb2dVertex
 10
24.79820553793611
 20
38.59360973738446
 30
0.0
  0
VERTEX
  5
50
330
30
100
AcDbEntity
  8
MEASURED_PANEL
 62
     0
100
AcDbVertex
100
AcDb2dVertex
 10
24.67341600719368
 20
38.52321340080568
 30
0.0
  0
VERTEX
  5
51
330
30
100
AcDbEntity
  8
MEASURED_PANEL
 62
     0
100
AcDbVertex
100
AcDb2dVertex
 10
24.54942300914016
 20
38.45018060899001
 30
0.0
  0
VERTEX
  5
52
330
30
100
AcDbEntity
  8
MEASURED_PANEL
 62
     0
100
AcDbVertex
100
AcDb2dVertex
 10
24.42630436982727
 20
38.37453548671652
 30
0.0
  0
VERTEX
  5
53
330
30
100
AcDbEntity
  8
MEASURED_PANEL
 62
     0
100
AcDbVertex
100
AcDb2dVertex
 10
24.30389479988598
 20
38.29633911288023
 30
0.0
  0
VERTEX
  5
54
330
30
100
AcDbEntity
  8
MEASURED_PANEL
 62
     0
100
AcDbVertex
100
AcDb2dVertex
 10
24.18196823109207
 20
38.21566180490526
 30
0.0
  0
VERTEX
  5
55
330
30
100
AcDbEntity
  8
MEASURED_PANEL
 62
     0
100
AcDbVertex
100
AcDb2dVertex
 10
24.06029859522134
 20
38.13257388021564
 30
0.0
  0
VERTEX
  5
56
330
30
100
AcDbEntity
  8
MEASURED_PANEL
 62
     0
100
AcDbVertex
100
AcDb2dVertex
 10
23.93865982404958
 20
38.04714565623545
 30
0.0
  0
VERTEX
  5
57
330
30
100
AcDbEntity
  8
MEASURED_PANEL
 62
     0
100
AcDbVertex
100
AcDb2dVertex
 10
23.8168258493526
 20
37.95944745038876
 30
0.0
  0
VERTEX
  5
58
330
30
100
AcDbEntity
  8
MEASURED_PANEL
 62
     0
100
AcDbVertex
100
AcDb2dVertex
 10
23.69457060290617
 20
37.86954958009963
 30
0.0
  0
VERTEX
  5
59
330
30
100
AcDbEntity
  8
MEASURED_PANEL
 62
     0
100
AcDbVertex
100
AcDb2dVertex
 10
23.57166801648609
 20
37.77752236279214
 30
0.0
  0
VERTEX
  5
5A
330
30
100
AcDbEntity
  8
MEASURED_PANEL
 62
     0
100
AcDbVertex
100
AcDb2dVertex
 10
23.44791767580689
 20
37.68335773246235
 30
0.0
  0
VERTEX
  5
5B
330
30
100
AcDbEntity
  8
MEASURED_PANEL
 62
     0
100
AcDbVertex
100
AcDb2dVertex
 10
23.32322178233801
 20
37.58673408939434
 30
0.0
  0
VERTEX
  5
5C
330
30
100
AcDbEntity
  8
MEASURED_PANEL
 62
     0
100
AcDbVertex
100
AcDb2dVertex
 10
23.1975081914876
 20
37.48725145044417
 30
0.0
  0
VERTEX
  5
5D
330
30
100
AcDbEntity
  8
MEASURED_PANEL
 62
     0
100
AcDbVertex
100
AcDb2dVertex
 10
23.07070475866384
 20
37.38450983246793
 30
0.0
  0
VERTEX
  5
5E
330
30
100
AcDbEntity
  8
MEASURED_PANEL
 62
     0
100
AcDbVertex
100
AcDb2dVertex
 10
22.9427393392749
 20
37.27810925232168
 30
0.0
  0
VERTEX
  5
5F
330
30
100
AcDbEntity
  8
MEASURED_PANEL
 62
     0
100
AcDbVertex
100
AcDb2dVertex
 10
22.81353978872893
 20
37.1676497268615
 30
0.0
  0
VERTEX
  5
60
330
30
100
AcDbEntity
  8
MEASURED_PANEL
 62
     0
100
AcDbVertex
100
AcDb2dVertex
 10
22.68303396243412
 20
37.05273127294347
 30
0.0
  0
VERTEX
  5
61
330
30
100
AcDbEntity
  8
MEASURED_PANEL
 62
     0
100
AcDbVertex
100
AcDb2dVertex
 10
22.55114971579862
 20
36.93295390742366
 30
0.0
  0
VERTEX
  5
62
330
30
100
AcDbEntity
  8
MEASURED_PANEL
 62
     0
100
AcDbVertex
100
AcDb2dVertex
 10
22.41789646655375
 20
36.80779255174156
 30
0.0
  0
VERTEX
  5
63
330
30
100
AcDbEntity
  8
MEASURED_PANEL
 62
     0
100
AcDbVertex
100
AcDb2dVertex
 10
22.28360988172346
 20
36.67622174567044
 30
0.0
  0
VERTEX
  5
64
330
30
100
AcDbEntity
  8
MEASURED_PANEL
 62
     0
100
AcDbVertex
100
AcDb2dVertex
 10
22.14870719065482
 20
36.53709093356695
 30
0.0
  0
VERTEX
  5
65
330
30
100
AcDbEntity
  8
MEASURED_PANEL
 62
     0
100
AcDbVertex
100
AcDb2dVertex
 10
22.01360562269493
 20
36.38924955978779
 30
0.0
  0
VERTEX
  5
66
330
30
100
AcDbEntity
  8
MEASURED_PANEL
 62
     0
100
AcDbVertex
100
AcDb2dVertex
 10
21.87872240719087
 20
36.23154706868966
 30
0.0
  0
VERTEX
  5
67
330
30
100
AcDbEntity
  8
MEASURED_PANEL
 62
     0
100
AcDbVertex
100
AcDb2dVertex
 10
21.74447477348974
 20
36.06283290462918
 30
0.0
  0
VERTEX
  5
68
330
30
100
AcDbEntity
  8
MEASURED_PANEL
 62
     0
100
AcDbVertex
100
AcDb2dVertex
 10
21.61127995093861
 20
35.88195651196308
 30
0.0
  0
VERTEX
  5
69
330
30
100
AcDbEntity
  8
MEASURED_PANEL
 62
     0
100
AcDbVertex
100
AcDb2dVertex
 10
21.47955516888458
 20
35.68776733504802
 30
0.0
  0
VERTEX
  5
6A
330
30
100
AcDbEntity
  8
MEASURED_PANEL
 62
     0
100
AcDbVertex
100
AcDb2dVertex
 10
21.34954654659901
 20
35.47912316556493
 30
0.0
  0
VERTEX
  5
6B
330
30
100
AcDbEntity
  8
MEASURED_PANEL
 62
     0
100
AcDbVertex
100
AcDb2dVertex
 10
21.22081576305032
 20
35.25491518449178
 30
0.0
  0
VERTEX
  5
6C
330
30
100
AcDbEntity
  8
MEASURED_PANEL
 62
     0
100
AcDbVertex
100
AcDb2dVertex
 10
21.09275338713121
 20
35.01404292013077
 30
0.0
  0
VERTEX
  5
6D
330
30
100
AcDbEntity
  8
MEASURED_PANEL
 62
     0
100
AcDbVertex
100
AcDb2dVertex
 10
20.96474998773437
 20
34.75540590078411
 30
0.0
  0
VERTEX
  5
6E
330
30
100
AcDbEntity
  8
MEASURED_PANEL
 62
     0
100
AcDbVertex
100
AcDb2dVertex
 10
20.83619613375252
 20
34.47790365475402
 30
0.0
  0
VERTEX
  5
6F
330
30
100
AcDbEntity
  8
MEASURED_PANEL
 62
     0
100
AcDbVertex
100
AcDb2dVertex
 10
20.70648239407834
 20
34.18043571034271
 30
0.0
  0
VERTEX
  5
70
330
30
100
AcDbEntity
  8
MEASURED_PANEL
 62
     0
100
AcDbVertex
100
AcDb2dVertex
 10
20.57499933760453
 20
33.86190159585239
 30
0.0
  0
VERTEX
  5
71
330
30
100
AcDbEntity
  8
MEASURED_PANEL
 62
     0
100
AcDbVertex
100
AcDb2dVertex
 10
20.4411375332238
 20
33.52120083958528
 30
0.0
  0
VERTEX
  5
72
330
30
100
AcDbEntity
  8
MEASURED_PANEL
 62
     0
100
AcDbVertex
100
AcDb2dVertex
 10
20.3050092450045
 20
33.15515083363925
 30
0.0
  0
VERTEX
  5
73
330
30
100
AcDbEntity
  8
MEASURED_PANEL
 62
     0
100
AcDbVertex
100
AcDb2dVertex
 10
20.16961351771771
 20
32.75224042529485
 30
0.0
  0
VERTEX
  5
74
330
30
100
AcDbEntity
  8
MEASURED_PANEL
 62
     0
100
AcDbVertex
100
AcDb2dVertex
 10
20.03867109131015
 20
32.29887632562832
 30
0.0
  0
VERTEX
  5
75
330
30
100
AcDbEntity
  8
MEASURED_PANEL
 62
     0
100
AcDbVertex
100
AcDb2dVertex
 10
19.91590270572856
 20
31.78146524571586
 30
0.0
  0
VERTEX
  5
76
330
30
100
AcDbEntity
  8
MEASURED_PANEL
 62
     0
100
AcDbVertex
100
AcDb2dVertex
 10
19.80502910091967
 20
31.18641389663372
 30
0.0
  0
VERTEX
  5
77
330
30
100
AcDbEntity
  8
MEASURED_PANEL
 62
     0
100
AcDbVertex
100
AcDb2dVertex
 10
19.70977101683021
 20
30.5001289894581
 30
0.0
  0
VERTEX
  5
78
330
30
100
AcDbEntity
  8
MEASURED_PANEL
 62
     0
100
AcDbVertex
100
AcDb2dVertex
 10
19.63384919340692
 20
29.70901723526523
 30
0.0
  0
VERTEX
  5
79
330
30
100
AcDbEntity
  8
MEASURED_PANEL
 62
     0
100
AcDbVertex
100
AcDb2dVertex
 10
19.61004592598774
 20
29.29948534513133
 30
0.0
  0
SEQEND
  5
7A
330
30
100
AcDbEntity
  8
MEASURED_PANEL
 62
     0
  0
POLYLINE
  5
7B
330
2
100
AcDbEntity
  8
MEASURED_PANEL
 62
     0
100
AcDb2dPolyline
 66
     1
 10
0.0
 20
0.0
 30
0.0
  0
VERTEX
  5
7C
330
7B
100
AcDbEntity
  8
MEASURED_PANEL
 62
     0
100
AcDbVertex
100
AcDb2dVertex
 10
46.13961261461851
 20
39.89764208122842
 30
0.0
  0
VERTEX
  5
7D
330
7B
100
AcDbEntity
  8
MEASURED_PANEL
 62
     0
100
AcDbVertex
100
AcDb2dVertex
 10
46.77476253548649
 20
39.87687681545051
 30
0.0
  0
VERTEX
  5
7E
330
7B
100
AcDbEntity
  8
MEASURED_PANEL
 62
     0
100
AcDbVertex
100
AcDb2dVertex
 10
47.31185710533772
 20
39.84973084658276
 30
0.0
  0
VERTEX
  5
7F
330
7B
100
AcDbEntity
  8
MEASURED_PANEL
 62
     0
100
AcDbVertex
100
AcDb2dVertex
 10
47.76249812212545
 20
39.81734598474476
 30
0.0
  0
VERTEX
  5
80
330
7B
100
AcDbEntity
  8
MEASURED_PANEL
 62
     0
100
AcDbVertex
100
AcDb2dVertex
 10
48.13828738380287
 20
39.78086404005608
 30
0.0
  0
VERTEX
  5
81
330
7B
100
AcDbEntity
  8
MEASURED_PANEL
 62
     0
100
AcDbVertex
100
AcDb2dVertex
 10
48.45082668832318
 20
39.74142682263631
 30
0.0
  0
VERTEX
  5
82
330
7B
100
AcDbEntity
  8
MEASURED_PANEL
 62
     0
100
AcDbVertex
100
AcDb2dVertex
 10
48.71171783363959
 20
39.70017614260503
 30
0.0
  0
VERTEX
  5
83
330
7B
100
AcDbEntity
  8
MEASURED_PANEL
 62
     0
100
AcDbVertex
100
AcDb2dVertex
 10
48.93256261770531
 20
39.65825381008183
 30
0.0
  0
VERTEX
  5
84
330
7B
100
AcDbEntity
  8
MEASURED_PANEL
 62
     0
100
AcDbVertex
100
AcDb2dVertex
 10
49.12496283847353
 20
39.61680163518626
 30
0.0
  0
VERTEX
  5
85
330
7B
100
AcDbEntity
  8
MEASURED_PANEL
 62
     0
100
AcDbVertex
100
AcDb2dVertex
 10
49.29896678446313
 20
39.57671789294049
 30
0.0
  0
VERTEX
  5
86
330
7B
100
AcDbEntity
  8
MEASURED_PANEL
 62
     0
100
AcDbVertex
100
AcDb2dVertex
 10
49.45840870645549
 20
39.5379267179769
 30
0.0
  0
VERTEX
  5
87
330
7B
100
AcDbEntity
  8
MEASURED_PANEL
 62
     0
100
AcDbVertex
100
AcDb2dVertex
 10
49.60556934579763
 20
39.5001087098304
 30
0.0
  0
VERTEX
  5
88
330
7B
100
AcDbEntity
  8
MEASURED_PANEL
 62
     0
100
AcDbVertex
100
AcDb2dVertex
 10
49.7427294438366
 20
39.46294446803591
 30
0.0
  0
VERTEX
  5
89
330
7B
100
AcDbEntity
  8
MEASURED_PANEL
 62
     0
100
AcDbVertex
100
AcDb2dVertex
 10
49.87216974191942
 20
39.42611459212839
 30
0.0
  0
VERTEX
  5
8A
330
7B
100
AcDbEntity
  8
MEASURED_PANEL
 62
     0
100
AcDbVertex
100
AcDb2dVertex
 10
49.99617098139312
 20
39.38929968164278
 30
0.0
  0
VERTEX
  5
8B
330
7B
100
AcDbEntity
  8
MEASURED_PANEL
 62
     0
100
AcDbVertex
100
AcDb2dVertex
 10
50.11701390360475
 20
39.35218033611398
 30
0.0
  0
VERTEX
  5
8C
330
7B
100
AcDbEntity
  8
MEASURED_PANEL
 62
     0
100
AcDbVertex
100
AcDb2dVertex
 10
50.23697924990135
 20
39.31443715507694
 30
0.0
  0
VERTEX
  5
8D
330
7B
100
AcDbEntity
  8
MEASURED_PANEL
 62
     0
100
AcDbVertex
100
AcDb2dVertex
 10
50.35794202424348
 20
39.27576652516464
 30
0.0
  0
VERTEX
  5
8E
330
7B
100
AcDbEntity
  8
MEASURED_PANEL
 62
     0
100
AcDbVertex
100
AcDb2dVertex
 10
50.48015428104602
 20
39.2359279814023
 30
0.0
  0
VERTEX
  5
8F
330
7B
100
AcDbEntity
  8
MEASURED_PANEL
 62
     0
100
AcDbVertex
100
AcDb2dVertex
 10
50.60346233733736
 20
39.19469684591318
 30
0.0
  0
VERTEX
  5
90
330
7B
100
AcDbEntity
  8
MEASURED_PANEL
 62
     0
100
AcDbVertex
100
AcDb2dVertex
 10
50.72771251014592
 20
39.15184844082055
 30
0.0
  0
VERTEX
  5
91
330
7B
100
AcDbEntity
  8
MEASURED_PANEL
 62
     0
100
AcDbVertex
100
AcDb2dVertex
 10
50.85275111650007
 20
39.1071580882477
 30
0.0
  0
VERTEX
  5
92
330
7B
100
AcDbEntity
  8
MEASURED_PANEL
 62
     0
100
AcDbVertex
100
AcDb2dVertex
 10
50.97842447342826
 20
39.06040111031787
 30
0.0
  0
VERTEX
  5
93
330
7B
100
AcDbEntity
  8
MEASURED_PANEL
 62
     0
100
AcDbVertex
100
AcDb2dVertex
 10
51.10457889795887
 20
39.01135282915435
 30
0.0
  0
VERTEX
  5
94
330
7B
100
AcDbEntity
  8
MEASURED_PANEL
 62
     0
100
AcDbVertex
100
AcDb2dVertex
 10
51.23106070712032
 20
38.95978856688039
 30
0.0
  0
VERTEX
  5
95
330
7B
100
AcDbEntity
  8
MEASURED_PANEL
 62
     0
100
AcDbVertex
100
AcDb2dVertex
 10
51.3577187309518
 20
38.90552357297373
 30
0.0
  0
VERTEX
  5
96
330
7B
100
AcDbEntity
  8
MEASURED_PANEL
 62
     0
100
AcDbVertex
100
AcDb2dVertex
 10
51.48441185153562
 20
38.84853280632995
 30
0.0
  0
VERTEX
  5
97
330
7B
100
AcDbEntity
  8
MEASURED_PANEL
 62
     0
100
AcDbVertex
100
AcDb2dVertex
 10
51.61100146396496
 20
38.7888311531991
 30
0.0
  0
VERTEX
  5
98
330
7B
100
AcDbEntity
  8
MEASURED_PANEL
 62
     0
100
AcDbVertex
100
AcDb2dVertex
 10
51.73734896333286
 20
38.7264334998312
 30
0.0
  0
VERTEX
  5
99
330
7B
100
AcDbEntity
  8
MEASURED_PANEL
 62
     0
100
AcDbVertex
100
AcDb2dVertex
 10
51.86331574473249
 20
38.66135473247631
 30
0.0
  0
VERTEX
  5
9A
330
7B
100
AcDbEntity
  8
MEASURED_PANEL
 62
     0
100
AcDbVertex
100
AcDb2dVertex
 10
51.98876320325696
 20
38.59360973738445
 30
0.0
  0
VERTEX
  5
9B
330
7B
100
AcDbEntity
  8
MEASURED_PANEL
 62
     0
100
AcDbVertex
100
AcDb2dVertex
 10
52.1135527339994
 20
38.52321340080567
 30
0.0
  0
VERTEX
  5
9C
330
7B
100
AcDbEntity
  8
MEASURED_PANEL
 62
     0
100
AcDbVertex
100
AcDb2dVertex
 10
52.2375457320529
 20
38.45018060899001
 30
0.0
  0
VERTEX
  5
9D
330
7B
100
AcDbEntity
  8
MEASURED_PANEL
 62
     0
100
AcDbVertex
100
AcDb2dVertex
 10
52.3606643713658
 20
38.37453548671651
 30
0.0
  0
VERTEX
  5
9E
330
7B
100
AcDbEntity
  8
MEASURED_PANEL
 62
     0
100
AcDbVertex
100
AcDb2dVertex
 10
52.48307394130709
 20
38.29633911288023
 30
0.0
  0
VERTEX
  5
9F
330
7B
100
AcDbEntity
  8
MEASURED_PANEL
 62
     0
100
AcDbVertex
100
AcDb2dVertex
 10
52.60500051010101
 20
38.21566180490525
 30
0.0
  0
VERTEX
  5
A0
330
7B
100
AcDbEntity
  8
MEASURED_PANEL
 62
     0
100
AcDbVertex
100
AcDb2dVertex
 10
52.72667014597174
 20
38.13257388021564
 30
0.0
  0
VERTEX
  5
A1
330
7B
100
AcDbEntity
  8
MEASURED_PANEL
 62
     0
100
AcDbVertex
100
AcDb2dVertex
 10
52.84830891714349
 20
38.04714565623544
 30
0.0
  0
VERTEX
  5
A2
330
7B
100
AcDbEntity
  8
MEASURED_PANEL
 62
     0
100
AcDbVertex
100
AcDb2dVertex
 10
52.97014289184048
 20
37.95944745038876
 30
0.0
  0
VERTEX
  5
A3
330
7B
100
AcDbEntity
  8
MEASURED_PANEL
 62
     0
100
AcDbVertex
100
AcDb2dVertex
 10
53.09239813828691
 20
37.86954958009963
 30
0.0
  0
VERTEX
  5
A4
330
7B
100
AcDbEntity
  8
MEASURED_PANEL
 62
     0
100
AcDbVertex
100
AcDb2dVertex
 10
53.21530072470697
 20
37.77752236279214
 30
0.0
  0
VERTEX
  5
A5
330
7B
100
AcDbEntity
  8
MEASURED_PANEL
 62
     0
100
AcDbVertex
100
AcDb2dVertex
 10
53.33905106538619
 20
37.68335773246235
 30
0.0
  0
VERTEX
  5
A6
330
7B
100
AcDbEntity
  8
MEASURED_PANEL
 62
     0
100
AcDbVertex
100
AcDb2dVertex
 10
53.46374695885507
 20
37.58673408939434
 30
0.0
  0
VERTEX
  5
A7
330
7B
100
AcDbEntity
  8
MEASURED_PANEL
 62
     0
100
AcDbVertex
100
AcDb2dVertex
 10
53.58946054970548
 20
37.48725145044417
 30
0.0
  0
VERTEX
  5
A8
330
7B
100
AcDbEntity
  8
MEASURED_PANEL
 62
     0
100
AcDbVertex
100
AcDb2dVertex
 10
53.71626398252923
 20
37.38450983246792
 30
0.0
  0
VERTEX
  5
A9
330
7B
100
AcDbEntity
  8
MEASURED_PANEL
 62
     0
100
AcDbVertex
100
AcDb2dVertex
 10
53.84422940191818
 20
37.27810925232168
 30
0.0
  0
VERTEX
  5
AA
330
7B
100
AcDbEntity
  8
MEASURED_PANEL
 62
     0
100
AcDbVertex
100
AcDb2dVertex
 10
53.97342895246414
 20
37.16764972686149
 30
0.0
  0
VERTEX
  5
AB
330
7B
100
AcDbEntity
  8
MEASURED_PANEL
 62
     0
100
AcDbVertex
100
AcDb2dVertex
 10
54.10393477875896
 20
37.05273127294347
 30
0.0
  0
VERTEX
  5
AC
330
7B
100
AcDbEntity
  8
MEASURED_PANEL
 62
     0
100
AcDbVertex
100
AcDb2dVertex
 10
54.23581902539446
 20
36.93295390742365
 30
0.0
  0
VERTEX
  5
AD
330
7B
100
AcDbEntity
  8
MEASURED_PANEL
 62
     0
100
AcDbVertex
100
AcDb2dVertex
 10
54.36907227463932
 20
36.80779255174155
 30
0.0
  0
VERTEX
  5
AE
330
7B
100
AcDbEntity
  8
MEASURED_PANEL
 62
     0
100
AcDbVertex
100
AcDb2dVertex
 10
54.50335885946961
 20
36.67622174567043
 30
0.0
  0
VERTEX
  5
AF
330
7B
100
AcDbEntity
  8
MEASURED_PANEL
 62
     0
100
AcDbVertex
100
AcDb2dVertex
 10
54.63826155053826
 20
36.53709093356694
 30
0.0
  0
VERTEX
  5
B0
330
7B
100
AcDbEntity
  8
MEASURED_PANEL
 62
     0
100
AcDbVertex
100
AcDb2dVertex
 10
54.77336311849814
 20
36.38924955978779
 30
0.0
  0
VERTEX
  5
B1
330
7B
100
AcDbEntity
  8
MEASURED_PANEL
 62
     0
100
AcDbVertex
100
AcDb2dVertex
 10
54.9082463340022
 20
36.23154706868965
 30
0.0
  0
VERTEX
  5
B2
330
7B
100
AcDbEntity
  8
MEASURED_PANEL
 62
     0
100
AcDbVertex
100
AcDb2dVertex
 10
55.04249396770333
 20
36.06283290462918
 30
0.0
  0
VERTEX
  5
B3
330
7B
100
AcDbEntity
  8
MEASURED_PANEL
 62
     0
100
AcDbVertex
100
AcDb2dVertex
 10
55.17568879025446
 20
35.88195651196308
 30
0.0
  0
VERTEX
  5
B4
330
7B
100
AcDbEntity
  8
MEASURED_PANEL
 62
     0
100
AcDbVertex
100
AcDb2dVertex
 10
55.30741357230849
 20
35.68776733504802
 30
0.0
  0
VERTEX
  5
B5
330
7B
100
AcDbEntity
  8
MEASURED_PANEL
 62
     0
100
AcDbVertex
100
AcDb2dVertex
 10
55.43742219459407
 20
35.47912316556493
 30
0.0
  0
VERTEX
  5
B6
330
7B
100
AcDbEntity
  8
MEASURED_PANEL
 62
     0
100
AcDbVertex
100
AcDb2dVertex
 10
55.56615297814275
 20
35.25491518449177
 30
0.0
  0
VERTEX
  5
B7
330
7B
100
AcDbEntity
  8
MEASURED_PANEL
 62
     0
100
AcDbVertex
100
AcDb2dVertex
 10
55.69421535406187
 20
35.01404292013076
 30
0.0
  0
VERTEX
  5
B8
330
7B
100
AcDbEntity
  8
MEASURED_PANEL
 62
     0
100
AcDbVertex
100
AcDb2dVertex
 10
55.8222187534587
 20
34.75540590078411
 30
0.0
  0
VERTEX
  5
B9
330
7B
100
AcDbEntity
  8
MEASURED_PANEL
 62
     0
100
AcDbVertex
100
AcDb2dVertex
 10
55.95077260744055
 20
34.47790365475401
 30
0.0
  0
VERTEX
  5
BA
330
7B
100
AcDbEntity
  8
MEASURED_PANEL
 62
     0
100
AcDbVertex
100
AcDb2dVertex
 10
56.08048634711472
 20
34.1804357103427
 30
0.0
  0
VERTEX
  5
BB
330
7B
100
AcDbEntity
  8
MEASURED_PANEL
 62
     0
100
AcDbVertex
100
AcDb2dVertex
 10
56.21196940358854
 20
33.86190159585238
 30
0.0
  0
VERTEX
  5
BC
330
7B
100
AcDbEntity
  8
MEASURED_PANEL
 62
     0
100
AcDbVertex
100
AcDb2dVertex
 10
56.34583120796928
 20
33.52120083958527
 30
0.0
  0
VERTEX
  5
BD
330
7B
100
AcDbEntity
  8
MEASURED_PANEL
 62
     0
100
AcDbVertex
100
AcDb2dVertex
 10
56.48195949618856
 20
33.15515083363924
 30
0.0
  0
VERTEX
  5
BE
330
7B
100
AcDbEntity
  8
MEASURED_PANEL
 62
     0
100
AcDbVertex
100
AcDb2dVertex
 10
56.61735522347536
 20
32.75224042529484
 30
0.0
  0
VERTEX
  5
BF
330
7B
100
AcDbEntity
  8
MEASURED_PANEL
 62
     0
100
AcDbVertex
100
AcDb2dVertex
 10
56.74829764988293
 20
32.29887632562831
 30
0.0
  0
VERTEX
  5
C0
330
7B
100
AcDbEntity
  8
MEASURED_PANEL
 62
     0
100
AcDbVertex
100
AcDb2dVertex
 10
56.87106603546451
 20
31.78146524571586
 30
0.0
  0
VERTEX
  5
C1
330
7B
100
AcDbEntity
  8
MEASURED_PANEL
 62
     0
100
AcDbVertex
100
AcDb2dVertex
 10
56.98193964027341
 20
31.18641389663372
 30
0.0
  0
VERTEX
  5
C2
330
7B
100
AcDbEntity
  8
MEASURED_PANEL
 62
     0
100
AcDbVertex
100
AcDb2dVertex
 10
57.07719772436286
 20
30.50012898945809
 30
0.0
  0
VERTEX
  5
C3
330
7B
100
AcDbEntity
  8
MEASURED_PANEL
 62
     0
100
AcDbVertex
100
AcDb2dVertex
 10
57.15311954778615
 20
29.70901723526523
 30
0.0
  0
VERTEX
  5
C4
330
7B
100
AcDbEntity
  8
MEASURED_PANEL
 62
     0
100
AcDbVertex
100
AcDb2dVertex
 10
57.17692281520533
 20
29.29948534513133
 30
0.0
  0
SEQEND
  5
C5
330
7B
100
AcDbEntity
  8
MEASURED_PANEL
 62
     0
  0
LWPOLYLINE
  5
C6
330
2
100
AcDbEntity
  8
MEASURED_PANEL
 62
     0
100
AcDbPolyline
 90
        2
 70
     0
 43
0.0
 10
36.77163783732867
 20
21.79948534513133
 10
40.78377910884412
 20
21.79948534513133
  0
LWPOLYLINE
  5
C7
330
2
100
AcDbEntity
  8
MEASURED_PANEL
 62
     0
100
AcDbPolyline
 90
        2
 70
     0
 43
0.0
 10
35.83098437059653
 20
28.79948534513133
 10
36.77163783732867
 20
21.79948534513133
  0
LWPOLYLINE
  5
C8
330
2
100
AcDbEntity
  8
MEASURED_PANEL
 62
     0
100
AcDbPolyline
 90
        2
 70
     0
 43
0.0
 10
36.07875727119388
 20
28.83278083626121
 10
37.01941073792601
 20
21.83278083626121
  0
LWPOLYLINE
  5
C9
330
2
100
AcDbEntity
  8
MEASURED_PANEL
 62
     0
100
AcDbPolyline
 90
        2
 70
     0
 43
0.0
 10
41.45699123572039
 20
26.80928444203499
 10
40.78377910884412
 20
21.79948534513133
  0
LWPOLYLINE
  5
CA
330
2
100
AcDbEntity
  8
MEASURED_PANEL
 62
     0
100
AcDbPolyline
 90
        2
 70
     0
 43
0.0
 10
41.22641634529138
 20
26.90590338377859
 10
40.53600620824677
 20
21.83278083626121
  0
POLYLINE
  5
CB
330
2
100
AcDbEntity
  8
MEASURED_PANEL
 62
     0
100
AcDb2dPolyline
 66
     1
 10
0.0
 20
0.0
 30
0.0
 70
     4
  0
VERTEX
  5
CC
330
CB
100
AcDbEntity
  8
MEASURED_PANEL
 62
     0
100
AcDbVertex
100
AcDb2dVertex
 10
42.58098437059653
 20
28.79948534513133
 30
0.0
 70
    16
  0
VERTEX
  5
CD
330
CB
100
AcDbEntity
  8
MEASURED_PANEL
 62
     0
100
AcDbVertex
100
AcDb2dVertex
 10
42.58098437059653
 20
28.79948534513133
 30
0.0
 70
     8
  0
VERTEX
  5
CE
330
CB
100
AcDbEntity
  8
MEASURED_PANEL
 62
     0
100
AcDbVertex
100
AcDb2dVertex
 10
42.58049285491933
 20
28.7069409465291
 30
0.0
 70
     8
  0
VERTEX
  5
CF
330
CB
100
AcDbEntity
  8
MEASURED_PANEL
 62
     0
100
AcDbVertex
100
AcDb2dVertex
 10
42.57641683288557
 20
28.62088093016967
 30
0.0
 70
     8
  0
VERTEX
  5
D0
330
CB
100
AcDbEntity
  8
MEASURED_PANEL
 62
     0
100
AcDbVertex
100
AcDb2dVertex
 10
42.56907126311655
 20
28.5409559877603
 30
0.0
 70
     8
  0
VERTEX
  5
D1
330
CB
100
AcDbEntity
  8
MEASURED_PANEL
 62
     0
100
AcDbVertex
100
AcDb2dVertex
 10
42.55877110423352
 20
28.4668168110082
 30
0.0
 70
     8
  0
VERTEX
  5
D2
330
CB
100
AcDbEntity
  8
MEASURED_PANEL
 62
     0
100
AcDbVertex
100
AcDb2dVertex
 10
42.5458313148578
 20
28.39811409162065
 30
0.0
 70
     8
  0
VERTEX
  5
D3
330
CB
100
AcDbEntity
  8
MEASURED_PANEL
 62
     0
100
AcDbVertex
100
AcDb2dVertex
 10
42.53056685361067
 20
28.33449852130487
 30
0.0
 70
     8
  0
VERTEX
  5
D4
330
CB
100
AcDbEntity
  8
MEASURED_PANEL
 62
     0
100
AcDbVertex
100
AcDb2dVertex
 10
42.51329267911342
 20
28.27562079176811
 30
0.0
 70
     8
  0
VERTEX
  5
D5
330
CB
100
AcDbEntity
  8
MEASURED_PANEL
 62
     0
100
AcDbVertex
100
AcDb2dVertex
 10
42.49432374998733
 20
28.22113159471761
 30
0.0
 70
     8
  0
VERTEX
  5
D6
330
CB
100
AcDbEntity
  8
MEASURED_PANEL
 62
     0
100
AcDbVertex
100
AcDb2dVertex
 10
42.47393485144643
 20
28.1706762138844
 30
0.0
 70
     8
  0
VERTEX
  5
D7
330
CB
100
AcDbEntity
  8
MEASURED_PANEL
 62
     0
100
AcDbVertex
100
AcDb2dVertex
 10
42.45224007507563
 20
28.12387830109459
 30
0.0
 70
     8
  0
VERTEX
  5
D8
330
CB
100
AcDbEntity
  8
MEASURED_PANEL
 62
     0
100
AcDbVertex
100
AcDb2dVertex
 10
42.42931333905263
 20
28.08035610019804
 30
0.0
 70
     8
  0
VERTEX
  5
D9
330
CB
100
AcDbEntity
  8
MEASURED_PANEL
 62
     0
100
AcDbVertex
100
AcDb2dVertex
 10
42.40522856155506
 20
28.03972785504467
 30
0.0
 70
     8
  0
VERTEX
  5
DA
330
CB
100
AcDbEntity
  8
MEASURED_PANEL
 62
     0
100
AcDbVertex
100
AcDb2dVertex
 10
42.38005966076063
 20
28.00161180948434
 30
0.0
 70
     8
  0
VERTEX
  5
DB
330
CB
100
AcDbEntity
  8
MEASURED_PANEL
 62
     0
100
AcDbVertex
100
AcDb2dVertex
 10
42.35388055484699
 20
27.96562620736694
 30
0.0
 70
     8
  0
VERTEX
  5
DC
330
CB
100
AcDbEntity
  8
MEASURED_PANEL
 62
     0
100
AcDbVertex
100
AcDb2dVertex
 10
42.32676516199181
 20
27.93138929254236
 30
0.0
 70
     8
  0
VERTEX
  5
DD
330
CB
100
AcDbEntity
  8
MEASURED_PANEL
 62
     0
100
AcDbVertex
100
AcDb2dVertex
 10
42.29878740037275
 20
27.89851930886048
 30
0.0
 70
     8
  0
VERTEX
  5
DE
330
CB
100
AcDbEntity
  8
MEASURED_PANEL
 62
     0
100
AcDbVertex
100
AcDb2dVertex
 10
42.27002529452509
 20
27.86668991639242
 30
0.0
 70
     8
  0
VERTEX
  5
DF
330
CB
100
AcDbEntity
  8
MEASURED_PANEL
 62
     0
100
AcDbVertex
100
AcDb2dVertex
 10
42.24057329441449
 20
27.83579644009423
 30
0.0
 70
     8
  0
VERTEX
  5
E0
330
CB
100
AcDbEntity
  8
MEASURED_PANEL
 62
     0
100
AcDbVertex
100
AcDb2dVertex
 10
42.21052995636425
 20
27.80578962114319
 30
0.0
 70
     8
  0
VERTEX
  5
E1
330
CB
100
AcDbEntity
  8
MEASURED_PANEL
 62
     0
100
AcDbVertex
100
AcDb2dVertex
 10
42.17999383669763
 20
27.7766202007166
 30
0.0
 70
     8
  0
VERTEX
  5
E2
330
CB
100
AcDbEntity
  8
MEASURED_PANEL
 62
     0
100
AcDbVertex
100
AcDb2dVertex
 10
42.14906349173791
 20
27.74823891999173
 30
0.0
 70
     8
  0
VERTEX
  5
E3
330
CB
100
AcDbEntity
  8
MEASURED_PANEL
 62
     0
100
AcDbVertex
100
AcDb2dVertex
 10
42.11783747780835
 20
27.72059652014587
 30
0.0
 70
     8
  0
VERTEX
  5
E4
330
CB
100
AcDbEntity
  8
MEASURED_PANEL
 62
     0
100
AcDbVertex
100
AcDb2dVertex
 10
42.08641435123225
 20
27.69364374235631
 30
0.0
 70
     8
  0
VERTEX
  5
E5
330
CB
100
AcDbEntity
  8
MEASURED_PANEL
 62
     0
100
AcDbVertex
100
AcDb2dVertex
 10
42.05489266833287
 20
27.66733132780032
 30
0.0
 70
     8
  0
VERTEX
  5
E6
330
CB
100
AcDbEntity
  8
MEASURED_PANEL
 62
     0
100
AcDbVertex
100
AcDb2dVertex
 10
42.02334429305142
 20
27.64153202464104
 30
0.0
 70
     8
  0
VERTEX
  5
E7
330
CB
100
AcDbEntity
  8
MEASURED_PANEL
 62
     0
100
AcDbVertex
100
AcDb2dVertex
 10
41.99173431980069
 20
27.61580660898498
 30
0.0
 70
     8
  0
VERTEX
  5
E8
330
CB
100
AcDbEntity
  8
MEASURED_PANEL
 62
     0
100
AcDbVertex
100
AcDb2dVertex
 10
41.96000115061147
 20
27.58963786392448
 30
0.0
 70
     8
  0
VERTEX
  5
E9
330
CB
100
AcDbEntity
  8
MEASURED_PANEL
 62
     0
100
AcDbVertex
100
AcDb2dVertex
 10
41.9280831875145
 20
27.56250857255189
 30
0.0
 70
     8
  0
VERTEX
  5
EA
330
CB
100
AcDbEntity
  8
MEASURED_PANEL
 62
     0
100
AcDbVertex
100
AcDb2dVertex
 10
41.89591883254053
 20
27.53390151795956
 30
0.0
 70
     8
  0
VERTEX
  5
EB
330
CB
100
AcDbEntity
  8
MEASURED_PANEL
 62
     0
100
AcDbVertex
100
AcDb2dVertex
 10
41.8634464877203
 20
27.50329948323984
 30
0.0
 70
     8
  0
VERTEX
  5
EC
330
CB
100
AcDbEntity
  8
MEASURED_PANEL
 62
     0
100
AcDbVertex
100
AcDb2dVertex
 10
41.83060455508456
 20
27.47018525148509
 30
0.0
 70
     8
  0
VERTEX
  5
ED
330
CB
100
AcDbEntity
  8
MEASURED_PANEL
 62
     0
100
AcDbVertex
100
AcDb2dVertex
 10
41.79733143666409
 20
27.43404160578764
 30
0.0
 70
     8
  0
VERTEX
  5
EE
330
CB
100
AcDbEntity
  8
MEASURED_PANEL
 62
     0
100
AcDbVertex
100
AcDb2dVertex
 10
41.76346545478448
 20
27.394030073249
 30
0.0
 70
     8
  0
VERTEX
  5
EF
330
CB
100
AcDbEntity
  8
MEASURED_PANEL
 62
     0
100
AcDbVertex
100
AcDb2dVertex
 10
41.72844461295095
 20
27.34802715700723
 30
0.0
 70
     8
  0
VERTEX
  5
F0
330
CB
100
AcDbEntity
  8
MEASURED_PANEL
 62
     0
100
AcDbVertex
100
AcDb2dVertex
 10
41.69160683496351
 20
27.29358810420955
 30
0.0
 70
     8
  0
VERTEX
  5
F1
330
CB
100
AcDbEntity
  8
MEASURED_PANEL
 62
     0
100
AcDbVertex
100
AcDb2dVertex
 10
41.65229004462227
 20
27.22826816200317
 30
0.0
 70
     8
  0
VERTEX
  5
F2
330
CB
100
AcDbEntity
  8
MEASURED_PANEL
 62
     0
100
AcDbVertex
100
AcDb2dVertex
 10
41.60983216572728
 20
27.14962257753531
 30
0.0
 70
     8
  0
VERTEX
  5
F3
330
CB
100
AcDbEntity
  8
MEASURED_PANEL
 62
     0
100
AcDbVertex
100
AcDb2dVertex
 10
41.56357112207859
 20
27.05520659795319
 30
0.0
 70
     8
  0
VERTEX
  5
F4
330
CB
100
AcDbEntity
  8
MEASURED_PANEL
 62
     0
100
AcDbVertex
100
AcDb2dVertex
 10
41.51284483747627
 20
26.94257547040401
 30
0.0
 70
     8
  0
VERTEX
  5
F5
330
CB
100
AcDbEntity
  8
MEASURED_PANEL
 62
     0
100
AcDbVertex
100
AcDb2dVertex
 10
41.45699123572039
 20
26.809284442035
 30
0.0
 70
     8
  0
VERTEX
  5
F6
330
CB
100
AcDbEntity
  8
MEASURED_PANEL
 62
     0
100
AcDbVertex
100
AcDb2dVertex
 10
42.58473296715166
 20
28.54374394294142
 30
0.0
 70
    16
  0
VERTEX
  5
F7
330
CB
100
AcDbEntity
  8
MEASURED_PANEL
 62
     0
100
AcDbVertex
100
AcDb2dVertex
 10
42.50904157406788
 20
28.17804653665352
 30
0.0
 70
    16
  0
VERTEX
  5
F8
330
CB
100
AcDbEntity
  8
MEASURED_PANEL
 62
     0
100
AcDbVertex
100
AcDb2dVertex
 10
42.30719753995893
 20
27.88801077560623
 30
0.0
 70
    16
  0
VERTEX
  5
F9
330
CB
100
AcDbEntity
  8
MEASURED_PANEL
 62
     0
100
AcDbVertex
100
AcDb2dVertex
 10
42.05489266833288
 20
27.66102621408444
 30
0.0
 70
    16
  0
VERTEX
  5
FA
330
CB
100
AcDbEntity
  8
MEASURED_PANEL
 62
     0
100
AcDbVertex
100
AcDb2dVertex
 10
41.8025877967068
 20
27.47187233485794
 30
0.0
 70
    16
  0
VERTEX
  5
FB
330
CB
100
AcDbEntity
  8
MEASURED_PANEL
 62
     0
100
AcDbVertex
100
AcDb2dVertex
 10
41.61335910878523
 20
27.19444683242574
 30
0.0
 70
    16
  0
VERTEX
  5
FC
330
CB
100
AcDbEntity
  8
MEASURED_PANEL
 62
     0
100
AcDbVertex
100
AcDb2dVertex
 10
41.45699123572039
 20
26.80928444203499
 30
0.0
 70
    16
  0
SEQEND
  5
FD
330
CB
100
AcDbEntity
  8
MEASURED_PANEL
 62
     0
  0
POLYLINE
  5
FE
330
2
100
AcDbEntity
  8
MEASURED_PANEL
 62
     0
100
AcDb2dPolyline
 66
     1
 10
0.0
 20
0.0
 30
0.0
  0
VERTEX
  5
FF
330
FE
100
AcDbEntity
  8
MEASURED_PANEL
 62
     0
100
AcDbVertex
100
AcDb2dVertex
 10
42.33098789653963
 20
28.80081310983779
 30
0.0
  0
VERTEX
  5
100
330
FE
100
AcDbEntity
  8
MEASURED_PANEL
 62
     0
100
AcDbVertex
100
AcDb2dVertex
 10
42.33052427871498
 20
28.7135214226068
 30
0.0
  0
VERTEX
  5
101
330
FE
100
AcDbEntity
  8
MEASURED_PANEL
 62
     0
100
AcDbVertex
100
AcDb2dVertex
 10
42.32695890819565
 20
28.63824316290161
 30
0.0
  0
VERTEX
  5
102
330
FE
100
AcDbEntity
  8
MEASURED_PANEL
 62
     0
100
AcDbVertex
100
AcDb2dVertex
 10
42.32065134607799
 20
28.5696124705457
 30
0.0
  0
VERTEX
  5
103
330
FE
100
AcDbEntity
  8
MEASURED_PANEL
 62
     0
100
AcDbVertex
100
AcDb2dVertex
 10
42.31197725375331
 20
28.50717750509258
 30
0.0
  0
VERTEX
  5
104
330
FE
100
AcDbEntity
  8
MEASURED_PANEL
 62
     0
100
AcDbVertex
100
AcDb2dVertex
 10
42.30129254000817
 20
28.45044791940505
 30
0.0
  0
VERTEX
  5
105
330
FE
100
AcDbEntity
  8
MEASURED_PANEL
 62
     0
100
AcDbVertex
100
AcDb2dVertex
 10
42.28892244655434
 20
28.39889480284334
 30
0.0
  0
VERTEX
  5
106
330
FE
100
AcDbEntity
  8
MEASURED_PANEL
 62
     0
100
AcDbVertex
100
AcDb2dVertex
 10
42.27515063350246
 20
28.35195460988485
 30
0.0
  0
VERTEX
  5
107
330
FE
100
AcDbEntity
  8
MEASURED_PANEL
 62
     0
100
AcDbVertex
100
AcDb2dVertex
 10
42.26023674482507
 20
28.30911371920883
 30
0.0
  0
VERTEX
  5
108
330
FE
100
AcDbEntity
  8
MEASURED_PANEL
 62
     0
100
AcDbVertex
100
AcDb2dVertex
 10
42.2444895443747
 20
28.2701449149752
 30
0.0
  0
VERTEX
  5
109
330
FE
100
AcDbEntity
  8
MEASURED_PANEL
 62
     0
100
AcDbVertex
100
AcDb2dVertex
 10
42.22809579899127
 20
28.23478188317253
 30
0.0
  0
VERTEX
  5
10A
330
FE
100
AcDbEntity
  8
MEASURED_PANEL
 62
     0
100
AcDbVertex
100
AcDb2dVertex
 10
42.21105572724964
 20
28.2024344341119
 30
0.0
  0
VERTEX
  5
10B
330
FE
100
AcDbEntity
  8
MEASURED_PANEL
 62
     0
100
AcDbVertex
100
AcDb2dVertex
 10
42.19326709389512
 20
28.17242705883329
 30
0.0
  0
VERTEX
  5
10C
330
FE
100
AcDbEntity
  8
MEASURED_PANEL
 62
     0
100
AcDbVertex
100
AcDb2dVertex
 10
42.1745617436539
 20
28.14409948156486
 30
0.0
  0
VERTEX
  5
10D
330
FE
100
AcDbEntity
  8
MEASURED_PANEL
 62
     0
100
AcDbVertex
100
AcDb2dVertex
 10
42.15472545849399
 20
28.1168326731564
 30
0.0
  0
VERTEX
  5
10E
330
FE
100
AcDbEntity
  8
MEASURED_PANEL
 62
     0
100
AcDbVertex
100
AcDb2dVertex
 10
42.13352700124404
 20
28.09006670376199
 30
0.0
  0
VERTEX
  5
10F
330
FE
100
AcDbEntity
  8
MEASURED_PANEL
 62
     0
100
AcDbVertex
100
AcDb2dVertex
 10
42.11081437729193
 20
28.06338252549056
 30
0.0
  0
VERTEX
  5
110
330
FE
100
AcDbEntity
  8
MEASURED_PANEL
 62
     0
100
AcDbVertex
100
AcDb2dVertex
 10
42.08677474847909
 20
28.03677923071364
 30
0.0
  0
VERTEX
  5
111
330
FE
100
AcDbEntity
  8
MEASURED_PANEL
 62
     0
100
AcDbVertex
100
AcDb2dVertex
 10
42.06173802368111
 20
28.01051712758902
 30
0.0
  0
VERTEX
  5
112
330
FE
100
AcDbEntity
  8
MEASURED_PANEL
 62
     0
100
AcDbVertex
100
AcDb2dVertex
 10
42.03583123956282
 20
27.98464183439287
 30
0.0
  0
VERTEX
  5
113
330
FE
100
AcDbEntity
  8
MEASURED_PANEL
 62
     0
100
AcDbVertex
100
AcDb2dVertex
 10
42.00912255196372
 20
27.95912854239224
 30
0.0
  0
VERTEX
  5
114
330
FE
100
AcDbEntity
  8
MEASURED_PANEL
 62
     0
100
AcDbVertex
100
AcDb2dVertex
 10
41.98168420448589
 20
27.93395147296709
 30
0.0
  0
VERTEX
  5
115
330
FE
100
AcDbEntity
  8
MEASURED_PANEL
 62
     0
100
AcDbVertex
100
AcDb2dVertex
 10
41.95359170420195
 20
27.90908297302757
 30
0.0
  0
VERTEX
  5
116
330
FE
100
AcDbEntity
  8
MEASURED_PANEL
 62
     0
100
AcDbVertex
100
AcDb2dVertex
 10
41.92492299364297
 20
27.88449275972279
 30
0.0
  0
VERTEX
  5
117
330
FE
100
AcDbEntity
  8
MEASURED_PANEL
 62
     0
100
AcDbVertex
100
AcDb2dVertex
 10
41.89565509445548
 20
27.860061668938
 30
0.0
  0
VERTEX
  5
118
330
FE
100
AcDbEntity
  8
MEASURED_PANEL
 62
     0
100
AcDbVertex
100
AcDb2dVertex
 10
41.86531101967576
 20
27.83524720615361
 30
0.0
  0
VERTEX
  5
119
330
FE
100
AcDbEntity
  8
MEASURED_PANEL
 62
     0
100
AcDbVertex
100
AcDb2dVertex
 10
41.83392987278931
 20
27.80970801822028
 30
0.0
 42
0.001617298450868
  0
VERTEX
  5
11A
330
FE
100
AcDbEntity
  8
MEASURED_PANEL
 62
     0
100
AcDbVertex
100
AcDb2dVertex
 10
41.83267879891502
 20
27.808683101269
 30
0.0
  0
VERTEX
  5
11B
330
FE
100
AcDbEntity
  8
MEASURED_PANEL
 62
     0
100
AcDbVertex
100
AcDb2dVertex
 10
41.8009456297258
 20
27.7825143562085
 30
0.0
 42
0.0037212116296416
  0
VERTEX
  5
11C
330
FE
100
AcDbEntity
  8
MEASURED_PANEL
 62
     0
100
AcDbVertex
100
AcDb2dVertex
 10
41.79809243157928
 20
27.78012557140545
 30
0.0
  0
VERTEX
  5
11D
330
FE
100
AcDbEntity
  8
MEASURED_PANEL
 62
     0
100
AcDbVertex
100
AcDb2dVertex
 10
41.76617446848231
 20
27.75299628003286
 30
0.0
 42
0.0056132685074923
  0
VERTEX
  5
11E
330
FE
100
AcDbEntity
  8
MEASURED_PANEL
 62
     0
100
AcDbVertex
100
AcDb2dVertex
 10
41.76193864795789
 20
27.74931326193501
 30
0.0
  0
VERTEX
  5
11F
330
FE
100
AcDbEntity
  8
MEASURED_PANEL
 62
     0
100
AcDbVertex
100
AcDb2dVertex
 10
41.72977429298392
 20
27.72070620734268
 30
0.0
 42
0.0072064420683808
  0
VERTEX
  5
120
330
FE
100
AcDbEntity
  8
MEASURED_PANEL
 62
     0
100
AcDbVertex
100
AcDb2dVertex
 10
41.72445936281421
 20
27.71584010716254
 30
0.0
  0
VERTEX
  5
121
330
FE
100
AcDbEntity
  8
MEASURED_PANEL
 62
     0
100
AcDbVertex
100
AcDb2dVertex
 10
41.69198701799397
 20
27.68523807244282
 30
0.0
 42
0.0084432581236467
  0
VERTEX
  5
122
330
FE
100
AcDbEntity
  8
MEASURED_PANEL
 62
     0
100
AcDbVertex
100
AcDb2dVertex
 10
41.68594148499109
 20
27.67934485808992
 30
0.0
  0
VERTEX
  5
123
330
FE
100
AcDbEntity
  8
MEASURED_PANEL
 62
     0
100
AcDbVertex
100
AcDb2dVertex
 10
41.65309955235536
 20
27.64623062633517
 30
0.0
 42
0.0093002847115848
  0
VERTEX
  5
124
330
FE
100
AcDbEntity
  8
MEASURED_PANEL
 62
     0
100
AcDbVertex
100
AcDb2dVertex
 10
41.64667496860988
 20
27.63950715561815
 30
0.0
  0
VERTEX
  5
125
330
FE
100
AcDbEntity
  8
MEASURED_PANEL
 62
     0
100
AcDbVertex
100
AcDb2dVertex
 10
41.61340185018939
 20
27.60336350992071
 30
0.0
 42
0.0104168911753771
  0
VERTEX
  5
126
330
FE
100
AcDbEntity
  8
MEASURED_PANEL
 62
     0
100
AcDbVertex
100
AcDb2dVertex
 10
41.60650854843776
 20
27.59555515112971
 30
0.0
  0
VERTEX
  5
127
330
FE
100
AcDbEntity
  8
MEASURED_PANEL
 62
     0
100
AcDbVertex
100
AcDb2dVertex
 10
41.57264256655817
 20
27.55554361859107
 30
0.0
 42
0.0129321764312044
  0
VERTEX
  5
128
330
FE
100
AcDbEntity
  8
MEASURED_PANEL
 62
     0
100
AcDbVertex
100
AcDb2dVertex
 10
41.56454709277253
 20
27.54546152722894
 30
0.0
  0
VERTEX
  5
129
330
FE
100
AcDbEntity
  8
MEASURED_PANEL
 62
     0
100
AcDbVertex
100
AcDb2dVertex
 10
41.52952625093898
 20
27.49945861098717
 30
0.0
 42
0.0139447413711125
  0
VERTEX
  5
12A
330
FE
100
AcDbEntity
  8
MEASURED_PANEL
 62
     0
100
AcDbVertex
100
AcDb2dVertex
 10
41.52139381336183
 20
27.48813413895142
 30
0.0
  0
VERTEX
  5
12B
330
FE
100
AcDbEntity
  8
MEASURED_PANEL
 62
     0
100
AcDbVertex
100
AcDb2dVertex
 10
41.4845560353744
 20
27.43369508615373
 30
0.0
 42
0.0132705181305365
  0
VERTEX
  5
12C
330
FE
100
AcDbEntity
  8
MEASURED_PANEL
 62
     0
100
AcDbVertex
100
AcDb2dVertex
 10
41.47741439591878
 20
27.42251288482239
 30
0.0
  0
VERTEX
  5
12D
330
FE
100
AcDbEntity
  8
MEASURED_PANEL
 62
     0
100
AcDbVertex
100
AcDb2dVertex
 10
41.43809760557754
 20
27.35719294261601
 30
0.0
 42
0.0116995058199006
  0
VERTEX
  5
12E
330
FE
100
AcDbEntity
  8
MEASURED_PANEL
 62
     0
100
AcDbVertex
100
AcDb2dVertex
 10
41.43230114007895
 20
27.34703213750849
 30
0.0
  0
VERTEX
  5
12F
330
FE
100
AcDbEntity
  8
MEASURED_PANEL
 62
     0
100
AcDbVertex
100
AcDb2dVertex
 10
41.38984326118396
 20
27.26838655304063
 30
0.0
 42
0.0098592453136295
  0
VERTEX
  5
130
330
FE
100
AcDbEntity
  8
MEASURED_PANEL
 62
     0
100
AcDbVertex
100
AcDb2dVertex
 10
41.38533197254068
 20
27.25962104688457
 30
0.0
  0
VERTEX
  5
131
330
FE
100
AcDbEntity
  8
MEASURED_PANEL
 62
     0
100
AcDbVertex
100
AcDb2dVertex
 10
41.33907092889199
 20
27.16520506730245
 30
0.0
 42
0.0081066334471296
  0
VERTEX
  5
132
330
FE
100
AcDbEntity
  8
MEASURED_PANEL
 62
     0
100
AcDbVertex
100
AcDb2dVertex
 10
41.33562277617964
 20
27.15786891626879
 30
0.0
  0
VERTEX
  5
133
330
FE
100
AcDbEntity
  8
MEASURED_PANEL
 62
     0
100
AcDbVertex
100
AcDb2dVertex
 10
41.28489649157732
 20
27.0452377887196
 30
0.0
 42
0.006589757792131
  0
VERTEX
  5
134
330
FE
100
AcDbEntity
  8
MEASURED_PANEL
 62
     0
100
AcDbVertex
100
AcDb2dVertex
 10
41.28226994704727
 20
27.0391944121476
 30
0.0
  0
VERTEX
  5
135
330
FE
100
AcDbEntity
  8
MEASURED_PANEL
 62
     0
100
AcDbVertex
100
AcDb2dVertex
 10
41.22641634529138
 20
26.90590338377859
 30
0.0
  0
SEQEND
  5
136
330
FE
100
AcDbEntity
  8
MEASURED_PANEL
 62
     0
  0
ARC
  5
137
330
2
100
AcDbEntity
  8
MEASURED_PANEL
 62
     0
100
AcDbCircle
 10
28.64729468318306
 20
29.25577212768621
 30
0.0
 40
1.476440917332834
100
AcDbArc
 50
198.0016912388155
 51
341.9983087611844
  0
LWPOLYLINE
  5
138
330
2
100
AcDbEntity
  8
MEASURED_PANEL
 62
     0
100
AcDbPolyline
 90
        2
 70
     0
 43
0.0
 10
30.0514599706191
 20
28.79948534513133
 10
35.83098437059653
 20
28.79948534513133
  0
ARC
  5
139
330
2
100
AcDbEntity
  8
MEASURED_PANEL
 62
     0
100
AcDbCircle
 10
48.1769494080022
 20
29.28159584702162
 30
0.0
 40
1.502264636668246
100
AcDbArc
 50
198.7187220987513
 51
341.2812779012486
  0
LWPOLYLINE
  5
13A
330
2
100
AcDbEntity
  8
MEASURED_PANEL
 62
     0
100
AcDbPolyline
 90
        2
 70
     0
 43
0.0
 10
49.59975245219035
 20
28.79948534513133
 10
56.20598437059654
 20
28.79948534513133
  0
ENDSEC
  0
SECTION
  2
OBJECTS
  0
DICTIONARY
  5
9
330
0
100
AcDbDictionary
  3
ACAD_GROUP
350
21
  3
ACAD_LAYOUT
350
D
  3
ACAD_MLINESTYLE
350
22
  3
ACAD_PLOTSETTINGS
350
23
  3
ACAD_PLOTSTYLENAME
350
8
  3
ACDBHEADERROUNDTRIPXREC
350
143
  0
DICTIONARY
  5
3
330
2
100
AcDbDictionary
280
     1
  3
ACAD_SORTENTS
360
4
  3
ACAD_LAYOUTSELFREF
360
163
  0
DICTIONARY
  5
164
330
E
100
AcDbDictionary
280
     1
  3
ACAD_LAYOUTSELFREF
360
165
  0
DICTIONARY
  5
21
102
{ACAD_REACTORS
330
9
102
}
330
9
100
AcDbDictionary
  0
DICTIONARY
  5
D
102
{ACAD_REACTORS
330
9
102
}
330
9
100
AcDbDictionary
  0
DICTIONARY
  5
22
102
{ACAD_REACTORS
330
9
102
}
330
9
100
AcDbDictionary
  3
STANDARD
350
25
  0
DICTIONARY
  5
23
102
{ACAD_REACTORS
330
9
102
}
330
9
100
AcDbDictionary
  0
ACDBDICTIONARYWDFLT
  5
8
102
{ACAD_REACTORS
330
9
102
}
330
9
100
AcDbDictionary
281
     1
  3
Normal
350
7
100
AcDbDictionaryWithDefault
340
7
  0
DICTIONARY
  5
143
102
{ACAD_REACTORS
330
9
102
}
330
9
100
AcDbDictionary
  3
TSTACKALIGN
350
144
  3
TSTACKSIZE
350
145
  3
HYPERLINKBASE
350
146
  3
STYLESHEET
350
147
  3
LAYOUTDICT
350
148
  3
PLOTSETDICT
350
149
  3
PLOTSTYLNAMDICT
350
14A
  3
LWETCUNION
350
14B
  3
INSUNITS
350
14C
  3
CEPSNTYPE
350
14D
  3
FINGERPRINTGUID
350
14E
  3
VERSIONGUID
350
14F
  3
PSVPSCALE
350
150
  3
PUCSORTHOREF
350
151
  3
PUCSORTHOVIEW
350
152
  3
PUCSBASE
350
153
  3
PUCSORGTOP
350
154
  3
PUCSORGBOTTOM
350
155
  3
PUCSORGLEFT
350
156
  3
PUCSORGRIGHT
350
157
  3
PUCSORGFRONT
350
158
  3
PUCSORGBACK
350
159
  3
UCSORTHOREF
350
15A
  3
UCSORTHOVIEW
350
15B
  3
UCSBASE
350
15C
  3
UCSORGTOP
350
15D
  3
UCSORGBOTTOM
350
15E
  3
UCSORGLEFT
350
15F
  3
UCSORGRIGHT
350
160
  3
UCSORGFRONT
350
161
  3
UCSORGBACK
350
162
  0
SORTENTSTABLE
  5
4
102
{ACAD_REACTORS
330
3
102
}
330
3
100
AcDbSortentsTable
330
2
  0
XRECORD
  5
163
102
{ACAD_REACTORS
330
3
102
}
330
3
100
AcDbXrecord
340
2
  0
XRECORD
  5
165
102
{ACAD_REACTORS
330
164
102
}
330
164
100
AcDbXrecord
340
E
  0
MLINESTYLE
  5
25
102
{ACAD_REACTORS
330
22
102
}
330
22
100
AcDbMlineStyle
  2
STANDARD
 70
     0
  3

 62
   256
 51
90.0
 52
90.0
 71
     2
 49
0.5
 62
   256
  6
BYLAYER
 49
-0.5
 62
   256
  6
BYLAYER
  0
ACDBPLACEHOLDER
  5
7
102
{ACAD_REACTORS
330
8
102
}
330
8
100
AcDbPlaceHolder
280
     0
  0
XRECORD
  5
144
102
{ACAD_REACTORS
330
143
102
}
330
143
100
AcDbXrecord
 90
        1
  0
XRECORD
  5
145
102
{ACAD_REACTORS
330
143
102
}
330
143
100
AcDbXrecord
 90
       70
  0
XRECORD
  5
146
102
{ACAD_REACTORS
330
143
102
}
330
143
100
AcDbXrecord
  1

  0
XRECORD
  5
147
102
{ACAD_REACTORS
330
143
102
}
330
143
100
AcDbXrecord
  1

  0
XRECORD
  5
148
102
{ACAD_REACTORS
330
143
102
}
330
143
100
AcDbXrecord
340
D
  0
XRECORD
  5
149
102
{ACAD_REACTORS
330
143
102
}
330
143
100
AcDbXrecord
340
23
  0
XRECORD
  5
14A
102
{ACAD_REACTORS
330
143
102
}
330
143
100
AcDbXrecord
340
8
  0
XRECORD
  5
14B
102
{ACAD_REACTORS
330
143
102
}
330
143
100
AcDbXrecord
 90
    10781
  0
XRECORD
  5
14C
102
{ACAD_REACTORS
330
143
102
}
330
143
100
AcDbXrecord
 90
        1
  0
XRECORD
  5
14D
102
{ACAD_REACTORS
330
143
102
}
330
143
100
AcDbXrecord
 90
        0
  0
XRECORD
  5
14E
102
{ACAD_REACTORS
330
143
102
}
330
143
100
AcDbXrecord
  1
{FDEAD576-A652-11D2-9A35-0060089B3A3F}
  0
XRECORD
  5
14F
102
{ACAD_REACTORS
330
143
102
}
330
143
100
AcDbXrecord
  1
{30C592C1-D97C-4837-BA0B-40D791704B5A}
  0
XRECORD
  5
150
102
{ACAD_REACTORS
330
143
102
}
330
143
100
AcDbXrecord
 40
0.0
  0
XRECORD
  5
151
102
{ACAD_REACTORS
330
143
102
}
330
143
100
AcDbXrecord
340
0
  0
XRECORD
  5
152
102
{ACAD_REACTORS
330
143
102
}
330
143
100
AcDbXrecord
 70
     0
  0
XRECORD
  5
153
102
{ACAD_REACTORS
330
143
102
}
330
143
100
AcDbXrecord
340
0
  0
XRECORD
  5
154
102
{ACAD_REACTORS
330
143
102
}
330
143
100
AcDbXrecord
 10
0.0
 20
0.0
 30
0.0
  0
XRECORD
  5
155
102
{ACAD_REACTORS
330
143
102
}
330
143
100
AcDbXrecord
 10
0.0
 20
0.0
 30
0.0
  0
XRECORD
  5
156
102
{ACAD_REACTORS
330
143
102
}
330
143
100
AcDbXrecord
 10
0.0
 20
0.0
 30
0.0
  0
XRECORD
  5
157
102
{ACAD_REACTORS
330
143
102
}
330
143
100
AcDbXrecord
 10
0.0
 20
0.0
 30
0.0
  0
XRECORD
  5
158
102
{ACAD_REACTORS
330
143
102
}
330
143
100
AcDbXrecord
 10
0.0
 20
0.0
 30
0.0
  0
XRECORD
  5
159
102
{ACAD_REACTORS
330
143
102
}
330
143
100
AcDbXrecord
 10
0.0
 20
0.0
 30
0.0
  0
XRECORD
  5
15A
102
{ACAD_REACTORS
330
143
102
}
330
143
100
AcDbXrecord
340
0
  0
XRECORD
  5
15B
102
{ACAD_REACTORS
330
143
102
}
330
143
100
AcDbXrecord
 70
     0
  0
XRECORD
  5
15C
102
{ACAD_REACTORS
330
143
102
}
330
143
100
AcDbXrecord
340
0
  0
XRECORD
  5
15D
102
{ACAD_REACTORS
330
143
102
}
330
143
100
AcDbXrecord
 10
0.0
 20
0.0
 30
0.0
  0
XRECORD
  5
15E
102
{ACAD_REACTORS
330
143
102
}
330
143
100
AcDbXrecord
 10
0.0
 20
0.0
 30
0.0
  0
XRECORD
  5
15F
102
{ACAD_REACTORS
330
143
102
}
330
143
100
AcDbXrecord
 10
0.0
 20
0.0
 30
0.0
  0
XRECORD
  5
160
102
{ACAD_REACTORS
330
143
102
}
330
143
100
AcDbXrecord
 10
0.0
 20
0.0
 30
0.0
  0
XRECORD
  5
161
102
{ACAD_REACTORS
330
143
102
}
330
143
100
AcDbXrecord
 10
0.0
 20
0.0
 30
0.0
  0
XRECORD
  5
162
102
{ACAD_REACTORS
330
143
102
}
330
143
100
AcDbXrecord
 10
0.0
 20
0.0
 30
0.0
  0
ENDSEC
  0
EOF
