  0
SECTION
  2
HEADER
  9
$ACADVER
  1
AC1014
  9
$ACADMAINTVER
 70
     9
  9
$DWGCODEPAGE
  3
ANSI_1252
  9
$INSBASE
 10
0.0
 20
0.0
 30
0.0
  9
$EXTMIN
 10
-4.949511037971994
 20
-1.189442436760415
 30
-0.0015258207003583
  9
$EXTMAX
 10
4.926689959270589
 20
1.203576233979614
 30
0.0000000349246037
  9
$LIMMIN
 10
0.0
 20
0.0
  9
$LIMMAX
 10
12.0
 20
9.0
  9
$ORTHOMODE
 70
     0
  9
$REGENMODE
 70
     1
  9
$FILLMODE
 70
     1
  9
$QTEXTMODE
 70
     0
  9
$MIRRTEXT
 70
     1
  9
$DRAGMODE
 70
     2
  9
$LTSCALE
 40
0.000394
  9
$OSMODE
 70
    37
  9
$ATTMODE
 70
     1
  9
$TEXTSIZE
 40
0.2
  9
$TRACEWID
 40
0.05
  9
$TEXTSTYLE
  7
STANDARD
  9
$CLAYER
  8
0
  9
$CELTYPE
  6
CONTINUOUS
  9
$CECOLOR
 62
   141
  9
$CELTSCALE
 40
1.0
  9
$DELOBJ
 70
     1
  9
$DISPSILH
 70
     0
  9
$DIMSCALE
 40
1.0
  9
$DIMASZ
 40
0.18
  9
$DIMEXO
 40
0.0625
  9
$DIMDLI
 40
0.38
  9
$DIMRND
 40
0.0
  9
$DIMDLE
 40
0.0
  9
$DIMEXE
 40
0.18
  9
$DIMTP
 40
0.0
  9
$DIMTM
 40
0.0
  9
$DIMTXT
 40
0.18
  9
$DIMCEN
 40
0.09
  9
$DIMTSZ
 40
0.0
  9
$DIMTOL
 70
     0
  9
$DIMLIM
 70
     0
  9
$DIMTIH
 70
     1
  9
$DIMTOH
 70
     1
  9
$DIMSE1
 70
     0
  9
$DIMSE2
 70
     0
  9
$DIMTAD
 70
     0
  9
$DIMZIN
 70
     0
  9
$DIMBLK
  1

  9
$DIMASO
 70
     1
  9
$DIMSHO
 70
     1
  9
$DIMPOST
  1

  9
$DIMAPOST
  1

  9
$DIMALT
 70
     0
  9
$DIMALTD
 70
     2
  9
$DIMALTF
 40
25.4
  9
$DIMLFAC
 40
1.0
  9
$DIMTOFL
 70
     0
  9
$DIMTVP
 40
0.0
  9
$DIMTIX
 70
     0
  9
$DIMSOXD
 70
     0
  9
$DIMSAH
 70
     0
  9
$DIMBLK1
  1

  9
$DIMBLK2
  1

  9
$DIMSTYLE
  2
STANDARD
  9
$DIMCLRD
 70
     0
  9
$DIMCLRE
 70
     0
  9
$DIMCLRT
 70
     0
  9
$DIMTFAC
 40
1.0
  9
$DIMGAP
 40
0.09
  9
$DIMJUST
 70
     0
  9
$DIMSD1
 70
     0
  9
$DIMSD2
 70
     0
  9
$DIMTOLJ
 70
     1
  9
$DIMTZIN
 70
     0
  9
$DIMALTZ
 70
     0
  9
$DIMALTTZ
 70
     0
  9
$DIMFIT
 70
     3
  9
$DIMUPT
 70
     0
  9
$DIMUNIT
 70
     2
  9
$DIMDEC
 70
     4
  9
$DIMTDEC
 70
     4
  9
$DIMALTU
 70
     2
  9
$DIMALTTD
 70
     2
  9
$DIMTXSTY
  7
STANDARD
  9
$DIMAUNIT
 70
     0
  9
$LUNITS
 70
     2
  9
$LUPREC
 70
     4
  9
$SKETCHINC
 40
0.1
  9
$FILLETRAD
 40
0.0
  9
$AUNITS
 70
     0
  9
$AUPREC
 70
     0
  9
$MENU
  1
.
  9
$ELEVATION
 40
0.0
  9
$PELEVATION
 40
0.0
  9
$THICKNESS
 40
0.0
  9
$LIMCHECK
 70
     0
  9
$BLIPMODE
 70
     0
  9
$CHAMFERA
 40
0.0
  9
$CHAMFERB
 40
0.0
  9
$CHAMFERC
 40
0.0
  9
$CHAMFERD
 40
0.0
  9
$SKPOLY
 70
     0
  9
$TDCREATE
 40
2452444.485166168
  9
$TDUPDATE
 40
2452444.488310705
  9
$TDINDWG
 40
0.0031467014
  9
$TDUSRTIMER
 40
0.0031467014
  9
$USRTIMER
 70
     1
  9
$ANGBASE
 50
0.0
  9
$ANGDIR
 70
     0
  9
$PDMODE
 70
    35
  9
$PDSIZE
 40
0.000315
  9
$PLINEWID
 40
0.0
  9
$COORDS
 70
     1
  9
$SPLFRAME
 70
     0
  9
$SPLINETYPE
 70
     6
  9
$SPLINESEGS
 70
     8
  9
$ATTDIA
 70
     0
  9
$ATTREQ
 70
     1
  9
$HANDLING
 70
 10241
  9
$HANDSEED
  5
ABC
  9
$SURFTAB1
 70
     6
  9
$SURFTAB2
 70
     6
  9
$SURFTYPE
 70
     6
  9
$SURFU
 70
     6
  9
$SURFV
 70
     6
  9
$UCSNAME
  2

  9
$UCSORG
 10
0.0
 20
0.0
 30
0.0
  9
$UCSXDIR
 10
1.0
 20
0.0
 30
0.0
  9
$UCSYDIR
 10
0.0
 20
1.0
 30
0.0
  9
$PUCSNAME
  2

  9
$PUCSORG
 10
0.0
 20
0.0
 30
0.0
  9
$PUCSXDIR
 10
1.0
 20
0.0
 30
0.0
  9
$PUCSYDIR
 10
0.0
 20
1.0
 30
0.0
  9
$USERI1
 70
     0
  9
$USERI2
 70
     0
  9
$USERI3
 70
     0
  9
$USERI4
 70
     0
  9
$USERI5
 70
     0
  9
$USERR1
 40
0.0
  9
$USERR2
 40
0.0
  9
$USERR3
 40
0.0
  9
$USERR4
 40
0.0
  9
$USERR5
 40
0.0
  9
$WORLDVIEW
 70
     1
  9
$SHADEDGE
 70
     3
  9
$SHADEDIF
 70
    70
  9
$TILEMODE
 70
     1
  9
$MAXACTVP
 70
    64
  9
$PINSBASE
 10
0.0
 20
0.0
 30
0.0
  9
$PLIMCHECK
 70
     0
  9
$PEXTMIN
 10
1.000000000000000E+20
 20
1.000000000000000E+20
 30
1.000000000000000E+20
  9
$PEXTMAX
 10
-1.000000000000000E+20
 20
-1.000000000000000E+20
 30
-1.000000000000000E+20
  9
$PLIMMIN
 10
0.0
 20
0.0
  9
$PLIMMAX
 10
12.0
 20
9.0
  9
$UNITMODE
 70
     0
  9
$VISRETAIN
 70
     1
  9
$PLINEGEN
 70
     0
  9
$PSLTSCALE
 70
     1
  9
$TREEDEPTH
 70
  3020
  9
$PICKSTYLE
 70
     1
  9
$CMLSTYLE
  2
STANDARD
  9
$CMLJUST
 70
     0
  9
$CMLSCALE
 40
1.0
  9
$PROXYGRAPHICS
 70
     1
  9
$MEASUREMENT
 70
     0
  0
ENDSEC
  0
SECTION
  2
CLASSES
  0
CLASS
  1
ACDBDICTIONARYWDFLT
  2
AcDbDictionaryWithDefault
  3
AutoCAD 2000
 90
        0
280
     0
281
     0
  0
CLASS
  1
ACDBPLACEHOLDER
  2
AcDbPlaceHolder
  3
AutoCAD 2000
 90
        0
280
     0
281
     0
  0
CLASS
  1
LAYOUT
  2
AcDbLayout
  3
AutoCAD 2000
 90
        0
280
     0
281
     0
  0
CLASS
  1
DICTIONARYVAR
  2
AcDbDictionaryVar
  3
AutoCAD 2000
 90
        0
280
     0
281
     0
  0
CLASS
  1
LONG_TRANSACTION
  2
AcDbLongTransaction
  3
AutoCAD 2000
 90
        0
280
     0
281
     0
  0
CLASS
  1
LWPOLYLINE
  2
AcDbPolyline
  3
AutoCAD 2000
 90
        0
280
     0
281
     1
  0
CLASS
  1
HATCH
  2
AcDbHatch
  3
AutoCAD 2000
 90
        0
280
     0
281
     1
  0
CLASS
  1
XRECORD
  2
AcDbXrecord
  3
AutoCAD 2000
 90
        0
280
     0
281
     0
  0
ENDSEC
  0
SECTION
  2
TABLES
  0
TABLE
  2
VPORT
  5
8
330
0
100
AcDbSymbolTable
 70
     4
  0
VPORT
  5
A97
330
8
100
AcDbSymbolTableRecord
100
AcDbViewportTableRecord
  2
*ACTIVE
 70
     0
 10
0.0
 20
0.0
 11
1.0
 21
1.0
 12
-0.0114105393507025
 22
0.0070668986095992
 13
0.0
 23
0.0
 14
1.0
 24
1.0
 15
0.0
 25
0.0
 16
0.0
 26
0.0
 36
1.0
 17
0.0
 27
0.0
 37
0.0
 40
6.755508940357024
 41
1.469047619047619
 42
50.0
 43
0.0
 44
0.0
 50
0.0
 51
0.0
 71
     0
 72
   100
 73
     1
 74
     1
 75
     0
 76
     0
 77
     0
 78
     0
  0
ENDTAB
  0
TABLE
  2
LTYPE
  5
5
330
0
100
AcDbSymbolTable
 70
    10
  0
LTYPE
  5
13
330
5
100
AcDbSymbolTableRecord
100
AcDbLinetypeTableRecord
  2
BYBLOCK
 70
     0
  3

 72
    65
 73
     0
 40
0.0
  0
LTYPE
  5
14
330
5
100
AcDbSymbolTableRecord
100
AcDbLinetypeTableRecord
  2
BYLAYER
 70
     0
  3

 72
    65
 73
     0
 40
0.0
  0
LTYPE
  5
15
330
5
100
AcDbSymbolTableRecord
100
AcDbLinetypeTableRecord
  2
CONTINUOUS
 70
     0
  3
Solid line
 72
    65
 73
     0
 40
0.0
  0
LTYPE
  5
22
330
5
100
AcDbSymbolTableRecord
100
AcDbLinetypeTableRecord
  2
DASHED
 70
     0
  3
__ __ __ __ __ __ __ __ __ __ __ __ __ __ __
 72
    65
 73
     2
 40
0.000003
 49
0.000002
 74
     0
 49
-0.000001
 74
     0
  0
LTYPE
  5
23
330
5
100
AcDbSymbolTableRecord
100
AcDbLinetypeTableRecord
  2
HIDDEN
 70
     0
  3
 _ _ _ _ _ _ _ _ _ _ _ _ _ _ _ _ _ _ _ _ _ _
 72
    65
 73
     2
 40
0.000001
 49
0.000001
 74
     0
 49
0.0
 74
     0
  0
LTYPE
  5
24
330
5
100
AcDbSymbolTableRecord
100
AcDbLinetypeTableRecord
  2
CENTER
 70
     0
  3
____ _ ____ _ ____ _ ____ _ ____ _ ____ _ ____
 72
    65
 73
     4
 40
0.000008
 49
0.000005
 74
     0
 49
-0.000001
 74
     0
 49
0.000001
 74
     0
 49
-0.000001
 74
     0
  0
LTYPE
  5
25
330
5
100
AcDbSymbolTableRecord
100
AcDbLinetypeTableRecord
  2
PHANTOM
 70
     0
  3
_____ _ _ _____ _ _ _____ _ _ _____ _ _ ____
 72
    65
 73
     6
 40
0.00001
 49
0.000005
 74
     0
 49
-0.000001
 74
     0
 49
0.000001
 74
     0
 49
-0.000001
 74
     0
 49
0.000001
 74
     0
 49
-0.000001
 74
     0
  0
LTYPE
  5
26
330
5
100
AcDbSymbolTableRecord
100
AcDbLinetypeTableRecord
  2
DOT
 70
     0
  3
...............................................
 72
    65
 73
     2
 40
0.000001
 49
0.0
 74
     0
 49
-0.000001
 74
     0
  0
LTYPE
  5
27
330
5
100
AcDbSymbolTableRecord
100
AcDbLinetypeTableRecord
  2
DASHDOT
 70
     0
  3
__ . __ . __ . __ . __ . __ . __ . __ . __ . __
 72
    65
 73
     4
 40
0.000004
 49
0.000002
 74
     0
 49
-0.000001
 74
     0
 49
0.0
 74
     0
 49
-0.000001
 74
     0
  0
LTYPE
  5
28
330
5
100
AcDbSymbolTableRecord
100
AcDbLinetypeTableRecord
  2
BORDER
 70
     0
  3
__ __ . __ __ . __ __ . __ __ . __ __ . __ __
 72
    65
 73
     6
 40
0.000007
 49
0.000002
 74
     0
 49
-0.000001
 74
     0
 49
0.000002
 74
     0
 49
-0.000001
 74
     0
 49
0.0
 74
     0
 49
-0.000001
 74
     0
  0
LTYPE
  5
29
330
5
100
AcDbSymbolTableRecord
100
AcDbLinetypeTableRecord
  2
DIVIDE
 70
     0
  3
__ . . __ . . __ . . __ . . __ . . __ . . __
 72
    65
 73
     6
 40
0.000005
 49
0.000002
 74
     0
 49
-0.000001
 74
     0
 49
0.0
 74
     0
 49
-0.000001
 74
     0
 49
0.0
 74
     0
 49
-0.000001
 74
     0
  0
LTYPE
  5
2A
330
5
100
AcDbSymbolTableRecord
100
AcDbLinetypeTableRecord
  2
DOTDOT
 70
     0
  3
 . .  . .  . .  . .  . .  . . 
 72
    65
 73
     5
 40
0.000002
 49
-0.000001
 74
     0
 49
0.0
 74
     0
 49
-0.000001
 74
     0
 49
0.0
 74
     0
 49
-0.000001
 74
     0
  0
ENDTAB
  0
TABLE
  2
LAYER
  5
2
330
0
100
AcDbSymbolTable
 70
     4
  0
LAYER
  5
10
330
2
100
AcDbSymbolTableRecord
100
AcDbLayerTableRecord
  2
0
 70
     0
 62
     7
  6
CONTINUOUS
  0
LAYER
  5
2B
330
2
100
AcDbSymbolTableRecord
100
AcDbLayerTableRecord
  2
FOREGROUND
 70
     0
 62
     7
  6
CONTINUOUS
  0
LAYER
  5
2C
330
2
100
AcDbSymbolTableRecord
100
AcDbLayerTableRecord
  2
BACKGROUND
 70
     1
 62
    -7
  6
CONTINUOUS
  0
LAYER
  5
2D
330
2
100
AcDbSymbolTableRecord
100
AcDbLayerTableRecord
  2
LAYER_1
 70
     0
 62
     7
  6
CONTINUOUS
  0
ENDTAB
  0
TABLE
  2
STYLE
  5
3
330
0
100
AcDbSymbolTable
 70
     1
  0
STYLE
  5
11
330
3
100
AcDbSymbolTableRecord
100
AcDbTextStyleTableRecord
  2
STANDARD
 70
     0
 40
0.0
 41
1.0
 50
0.0
 71
     0
 42
0.2
  3
txt
  4

  0
ENDTAB
  0
TABLE
  2
VIEW
  5
6
330
0
100
AcDbSymbolTable
 70
     0
  0
ENDTAB
  0
TABLE
  2
UCS
  5
7
330
0
100
AcDbSymbolTable
 70
     0
  0
ENDTAB
  0
TABLE
  2
APPID
  5
9
330
0
100
AcDbSymbolTable
 70
     1
  0
APPID
  5
12
330
9
100
AcDbSymbolTableRecord
100
AcDbRegAppTableRecord
  2
ACAD
 70
     0
  0
ENDTAB
  0
TABLE
  2
DIMSTYLE
  5
A
330
0
100
AcDbSymbolTable
 70
     1
  0
DIMSTYLE
105
93C
330
A
100
AcDbSymbolTableRecord
100
AcDbDimStyleTableRecord
  2
STANDARD
 70
     0
  3

  4

  5

  6

  7

 40
1.0
 41
0.18
 42
0.0625
 43
0.38
 44
0.18
 45
0.0
 46
0.0
 47
0.0
 48
0.0
140
0.18
141
0.09
142
0.0
143
25.4
144
1.0
145
0.0
146
1.0
147
0.09
 71
     0
 72
     0
 73
     1
 74
     1
 75
     0
 76
     0
 77
     0
 78
     0
170
     0
171
     2
172
     0
173
     0
174
     0
175
     0
176
     0
177
     0
178
     0
270
     2
271
     4
272
     4
273
     2
274
     2
340
11
275
     0
280
     0
281
     0
282
     0
283
     1
284
     0
285
     0
286
     0
287
     3
288
     0
  0
ENDTAB
  0
TABLE
  2
BLOCK_RECORD
  5
1
330
0
100
AcDbSymbolTable
 70
     0
  0
BLOCK_RECORD
  5
1E
102
{ACAD_XDICTIONARY
360
ABA
102
}
330
1
100
AcDbSymbolTableRecord
100
AcDbBlockTableRecord
  2
*MODEL_SPACE
  0
BLOCK_RECORD
  5
1A
102
{ACAD_XDICTIONARY
360
AB8
102
}
330
1
100
AcDbSymbolTableRecord
100
AcDbBlockTableRecord
  2
*PAPER_SPACE
  0
ENDTAB
  0
ENDSEC
  0
SECTION
  2
BLOCKS
  0
BLOCK
  5
1F
330
1E
100
AcDbEntity
  8
0
100
AcDbBlockBegin
  2
*MODEL_SPACE
 70
     0
 10
0.0
 20
0.0
 30
0.0
  3
*MODEL_SPACE
  1

  0
ENDBLK
  5
20
330
1E
100
AcDbEntity
  8
0
100
AcDbBlockEnd
  0
BLOCK
  5
1B
330
1A
100
AcDbEntity
 67
     1
  8
0
100
AcDbBlockBegin
  2
*PAPER_SPACE
 70
     0
 10
0.0
 20
0.0
 30
0.0
  3
*PAPER_SPACE
  1

  0
ENDBLK
  5
1C
330
1A
100
AcDbEntity
 67
     1
  8
0
100
AcDbBlockEnd
  0
ENDSEC
  0
SECTION
  2
ENTITIES
  0
LWPOLYLINE
  5
30
330
1E
100
AcDbEntity
  8
LAYER_1
  6
CONTINUOUS
 62
    39
100
AcDbPolyline
 90
      366
 70
     1
 43
0.008
 10
2.154330999999999
 20
-1.126420999999999
 10
2.237824
 20
-1.120079999999999
 10
2.317006
 20
-1.114070999999999
 10
2.392011999999999
 20
-1.108376
 10
2.462975
 20
-1.102979999999999
 10
2.53003
 20
-1.097866999999999
 10
2.593310999999999
 20
-1.09302
 10
2.652951999999999
 20
-1.088422
 10
2.709089
 20
-1.084059
 10
2.761854
 20
-1.079914
 10
2.811382
 20
-1.075968999999999
 10
2.857808
 20
-1.07221
 10
2.901266
 20
-1.06862
 10
2.94189
 20
-1.065182
 10
2.979813999999999
 20
-1.061880999999999
 10
3.015172999999999
 20
-1.058701
 10
3.069282999999999
 20
-1.054602999999999
 10
3.123095
 20
-1.050086999999999
 10
3.176622
 20
-1.045093
 10
3.22988
 20
-1.039565
 10
3.282882999999999
 20
-1.033444
 10
3.335646
 20
-1.026674
 10
3.388183999999999
 20
-1.019195999999999
 10
3.440512
 20
-1.010952999999999
 10
3.492644
 20
-1.001886999999999
 10
3.544594999999999
 20
-0.9919409999999999
 10
3.59638
 20
-0.981057
 10
3.648013999999999
 20
-0.9691780000000001
 10
3.699511
 20
-0.9562450000000001
 10
3.750885999999999
 20
-0.9422020000000001
 10
3.802152999999999
 20
-0.9269899999999999
 10
3.853329
 20
-0.910552
 10
3.904426
 20
-0.8928309999999999
 10
3.955461
 20
-0.8737679999999999
 10
3.955461
 20
-0.8737679999999999
 10
4.023182
 20
-0.8431409999999999
 10
4.084311
 20
-0.8101779999999999
 10
4.139701999999999
 20
-0.775354
 10
4.190208
 20
-0.7391399999999999
 10
4.236685999999999
 20
-0.7020109999999999
 10
4.279987999999999
 20
-0.664439
 10
4.320971
 20
-0.6268970000000001
 10
4.360488
 20
-0.589858
 10
4.415504
 20
-0.582166
 10
4.46851
 20
-0.574731
 10
4.520235999999999
 20
-0.5664060000000001
 10
4.571405999999999
 20
-0.55604
 10
4.622748
 20
-0.542487
 10
4.674989
 20
-0.524596
 10
4.728855
 20
-0.50122
 10
4.785073
 20
-0.4712100000000001
 10
4.844369999999999
 20
-0.4334170000000001
 10
4.907472
 20
-0.386693
 10
4.919916999999999
 20
-0.370198
 10
4.921941999999999
 20
-0.353702
 10
4.915283
 20
-0.339811
 10
4.870982999999999
 20
-0.3120159999999999
 10
4.824913999999999
 20
-0.286744
 10
4.777224999999999
 20
-0.263838
 10
4.72806
 20
-0.243147
 10
4.677566999999999
 20
-0.224514
 10
4.625891999999999
 20
-0.207786
 10
4.573180999999999
 20
-0.192808
 10
4.519581999999999
 20
-0.179426
 10
4.46524
 20
-0.167486
 10
4.410302999999999
 20
-0.156833
 10
4.354916
 20
-0.147313
 10
4.299225999999999
 20
-0.138772
 10
4.24338
 20
-0.131055
 10
4.187524999999999
 20
-0.124008
 10
4.131806
 20
-0.117477
 10
4.076369999999999
 20
-0.111308
 10
4.021364
 20
-0.105345
 10
3.966933999999999
 20
-0.099436
 10
3.913226999999999
 20
-0.093425
 10
3.86039
 20
-0.087157
 10
3.805602999999999
 20
-0.08499
 10
3.751052999999999
 20
-0.082838
 10
3.696712999999999
 20
-0.080718
 10
3.642552999999999
 20
-0.078647
 10
3.588546
 20
-0.076639
 10
3.534662999999999
 20
-0.074713
 10
3.480876999999999
 20
-0.072883
 10
3.427158999999999
 20
-0.071165
 10
3.373480999999999
 20
-0.069576
 10
3.319816
 20
-0.068131
 10
3.266134
 20
-0.066848
 10
3.212408
 20
-0.065741
 10
3.158609
 20
-0.064828
 10
3.104710999999999
 20
-0.064123
 10
3.050683
 20
-0.063644
 10
2.996499
 20
-0.063405
 10
2.94213
 20
-0.063424
 10
2.887546999999999
 20
-0.063717
 10
2.824398
 20
-0.064726
 10
2.761499999999999
 20
-0.065861
 10
2.69879
 20
-0.066621
 10
2.636204999999999
 20
-0.066507
 10
2.573681
 20
-0.065016
 10
2.510067999999999
 20
-0.067279
 10
2.44527
 20
-0.068289
 10
2.380813999999999
 20
-0.067751
 10
2.318225999999999
 20
-0.065367
 10
2.259031999999999
 20
-0.060842
 10
2.204759
 20
-0.053878
 10
2.156932999999999
 20
-0.044181
 10
2.105853999999999
 20
-0.034823
 10
2.060850999999999
 20
-0.024886
 10
2.020188999999999
 20
-0.002504
 10
1.974422
 20
0.028181
 10
1.927650999999999
 20
0.058259
 10
1.879902999999999
 20
0.08756
 10
1.831206
 20
0.115911
 10
1.781584999999999
 20
0.143141
 10
1.73107
 20
0.169078
 10
1.679686
 20
0.193549
 10
1.627461
 20
0.216384
 10
1.574422
 20
0.23741
 10
1.520595999999999
 20
0.256455
 10
1.466010999999999
 20
0.273349
 10
1.410693
 20
0.287917
 10
1.336267
 20
0.309815
 10
1.255473999999999
 20
0.330266
 10
1.174971999999999
 20
0.347823
 10
1.116983999999999
 20
0.357504
 10
1.059105999999999
 20
0.3664239999999999
 10
1.001330999999999
 20
0.374542
 10
0.94365
 20
0.381814
 10
0.886054
 20
0.3881969999999999
 10
0.8285350000000001
 20
0.393649
 10
0.7710850000000001
 20
0.398126
 10
0.713694
 20
0.4015880000000001
 10
0.656354
 20
0.4039900000000001
 10
0.599057
 20
0.4052900000000001
 10
0.5417950000000001
 20
0.405445
 10
0.484558
 20
0.404412
 10
0.427337
 20
0.40215
 10
0.370126
 20
0.398614
 10
0.3139349999999999
 20
0.396833
 10
0.2585929999999999
 20
0.39386
 10
0.203991
 20
0.389735
 10
0.150021
 20
0.384497
 10
0.096575
 20
0.378184
 10
0.043543
 20
0.370835
 10
-0.009181
 20
0.362491
 10
-0.061707
 20
0.353189
 10
-0.114144
 20
0.342969
 10
-0.166599
 20
0.33187
 10
-0.219181
 20
0.319931
 10
-0.271998
 20
0.307191
 10
-0.32516
 20
0.293689
 10
-0.378773
 20
0.279465
 10
-0.4329470000000001
 20
0.264556
 10
-0.487791
 20
0.249003
 10
-0.543412
 20
0.232845
 10
-0.5999180000000001
 20
0.21612
 10
-0.6574200000000001
 20
0.198867
 10
-0.716024
 20
0.181126
 10
-0.7774800000000001
 20
0.165817
 10
-0.838249
 20
0.151124
 10
-0.898512
 20
0.137009
 10
-0.958449
 20
0.123437
 10
-1.018242
 20
0.110371
 10
-1.078071
 20
0.097776
 10
-1.132195
 20
0.090945
 10
-1.186196999999999
 20
0.084075
 10
-1.240086
 20
0.077218
 10
-1.293873
 20
0.070421
 10
-1.347568
 20
0.063737
 10
-1.401181
 20
0.057215
 10
-1.454722999999999
 20
0.050904
 10
-1.508204
 20
0.044855
 10
-1.561635
 20
0.039119
 10
-1.615024
 20
0.033745
 10
-1.668384
 20
0.028783
 10
-1.721724
 20
0.024284
 10
-1.775054
 20
0.020297
 10
-1.828383999999999
 20
0.016872
 10
-1.881725999999999
 20
0.014061
 10
-1.935088
 20
0.011912
 10
-1.988481999999999
 20
0.010476
 10
-2.041917999999999
 20
0.009802
 10
-2.095406
 20
0.009942
 10
-2.148956
 20
0.010945
 10
-2.202579
 20
0.012861
 10
-2.256283999999999
 20
0.015741
 10
-2.310083
 20
0.019634
 10
-2.310083
 20
0.019634
 10
-2.381034999999999
 20
0.028167
 10
-2.448234999999999
 20
0.038513
 10
-2.513561
 20
0.051234
 10
-2.578886
 20
0.066894
 10
-2.646087
 20
0.086055
 10
-2.700009999999999
 20
0.09996
 10
-2.753236
 20
0.115201
 10
-2.805743999999999
 20
0.131787
 10
-2.857512999999999
 20
0.149728
 10
-2.90852
 20
0.169032
 10
-2.958745
 20
0.18971
 10
-3.008166
 20
0.211771
 10
-3.056761999999999
 20
0.235224
 10
-3.104511
 20
0.260078
 10
-3.151390999999999
 20
0.286343
 10
-3.197382
 20
0.314029
 10
-3.242461999999999
 20
0.343144
 10
-3.286608999999999
 20
0.373698
 10
-3.329801999999999
 20
0.405701
 10
-3.372019999999999
 20
0.439161
 10
-3.413241
 20
0.474088
 10
-3.453443
 20
0.5104920000000001
 10
-3.492605999999999
 20
0.548382
 10
-3.531581999999999
 20
0.5844090000000001
 10
-3.569219
 20
0.621955
 10
-3.605747
 20
0.6607029999999999
 10
-3.641394
 20
0.70034
 10
-3.67639
 20
0.74055
 10
-3.710965
 20
0.7810189999999999
 10
-3.745346
 20
0.8214319999999998
 10
-3.779762999999999
 20
0.8614729999999999
 10
-3.814445999999999
 20
0.900829
 10
-3.849624
 20
0.939183
 10
-3.885523999999999
 20
0.9762219999999999
 10
-3.922377999999999
 20
1.01163
 10
-3.960412999999999
 20
1.045093
 10
-3.999858999999999
 20
1.076295999999999
 10
-4.040944999999999
 20
1.104922999999999
 10
-4.083901
 20
1.130659999999999
 10
-4.128954
 20
1.153191999999999
 10
-4.176334999999999
 20
1.172204999999999
 10
-4.231829
 20
1.177969
 10
-4.287237999999999
 20
1.182998999999999
 10
-4.342556
 20
1.187316999999999
 10
-4.397776999999999
 20
1.190945999999999
 10
-4.452895999999999
 20
1.193907999999999
 10
-4.507906
 20
1.196227
 10
-4.562802999999999
 20
1.197924999999999
 10
-4.617579
 20
1.199024999999999
 10
-4.672231
 20
1.199549999999999
 10
-4.726751
 20
1.199522999999999
 10
-4.781134999999999
 20
1.198965
 10
-4.835376999999999
 20
1.197901
 10
-4.889469999999999
 20
1.196353
 10
-4.943408999999999
 20
1.194342999999999
 10
-4.455034999999999
 20
-0.410138
 10
-4.436272999999999
 20
-0.442117
 10
-4.409984999999999
 20
-0.472361
 10
-4.386012
 20
-0.492185
 10
-4.333146
 20
-0.515192
 10
-4.265230999999999
 20
-0.530387
 10
-4.201079
 20
-0.542976
 10
-4.145077999999999
 20
-0.5503740000000001
 10
-4.086037999999999
 20
-0.557012
 10
-4.025262
 20
-0.5629990000000001
 10
-3.964051999999999
 20
-0.568444
 10
-3.903709999999999
 20
-0.573454
 10
-3.845539
 20
-0.5781380000000001
 10
-3.792332
 20
-0.584044
 10
-3.738733999999999
 20
-0.5892400000000001
 10
-3.684781999999999
 20
-0.5938
 10
-3.630512999999999
 20
-0.597796
 10
-3.575965
 20
-0.6013029999999999
 10
-3.521173999999999
 20
-0.604392
 10
-3.466178999999999
 20
-0.607139
 10
-3.411016
 20
-0.609615
 10
-3.355722
 20
-0.6118930000000001
 10
-3.300336
 20
-0.614048
 10
-3.244893
 20
-0.6161520000000001
 10
-3.189432
 20
-0.6182790000000001
 10
-3.13399
 20
-0.620501
 10
-3.078602999999999
 20
-0.6228920000000001
 10
-3.023309999999999
 20
-0.625526
 10
-2.968147
 20
-0.628474
 10
-2.913151
 20
-0.6318120000000001
 10
-2.858359999999999
 20
-0.635611
 10
-2.803811999999999
 20
-0.639945
 10
-2.749541999999999
 20
-0.644887
 10
-2.69559
 20
-0.6505100000000001
 10
-2.641990999999999
 20
-0.6568890000000001
 10
-2.588783
 20
-0.664094
 10
-2.588783
 20
-0.664094
 10
-2.53249
 20
-0.668959
 10
-2.476008
 20
-0.674489
 10
-2.419332999999999
 20
-0.6806100000000001
 10
-2.362462999999999
 20
-0.6872460000000001
 10
-2.305393999999999
 20
-0.694324
 10
-2.248121999999999
 20
-0.7017680000000001
 10
-2.190643999999999
 20
-0.709504
 10
-2.132956
 20
-0.7174570000000001
 10
-2.075054
 20
-0.7255520000000001
 10
-2.016935999999999
 20
-0.7337150000000001
 10
-1.958597
 20
-0.7418710000000001
 10
-1.900033999999999
 20
-0.749945
 10
-1.841243999999999
 20
-0.7578620000000001
 10
-1.786766
 20
-0.764925
 10
-1.732352999999999
 20
-0.7719800000000001
 10
-1.677999999999999
 20
-0.779037
 10
-1.623699
 20
-0.786107
 10
-1.569445999999999
 20
-0.7932000000000001
 10
-1.515233999999999
 20
-0.8003259999999999
 10
-1.461057
 20
-0.8074949999999999
 10
-1.40691
 20
-0.814717
 10
-1.352787
 20
-0.8220019999999999
 10
-1.298680999999999
 20
-0.8293610000000001
 10
-1.244588
 20
-0.836803
 10
-1.190499999999999
 20
-0.8443389999999999
 10
-1.136411999999999
 20
-0.851979
 10
-1.082318
 20
-0.8597319999999999
 10
-1.028212999999999
 20
-0.8676099999999999
 10
-0.974089
 20
-0.8756219999999999
 10
-0.9199419999999999
 20
-0.883778
 10
-0.8657659999999999
 20
-0.8920879999999998
 10
-0.8115539999999999
 20
-0.9005629999999998
 10
-0.757301
 20
-0.9092129999999999
 10
-0.703
 20
-0.9180469999999999
 10
-0.703
 20
-0.9180469999999999
 10
-0.651979
 20
-0.926351
 10
-0.5833300000000001
 20
-0.9366559999999999
 10
-0.5088050000000001
 20
-0.9481479999999999
 10
-0.440157
 20
-0.9600149999999999
 10
-0.389138
 20
-0.9714450000000001
 10
-0.329397
 20
-0.9832049999999998
 10
-0.277533
 20
-0.9958249999999999
 10
-0.231185
 20
-1.009303999999999
 10
-0.187994
 20
-1.023643
 10
-0.1456
 20
-1.038840999999999
 10
-0.101644
 20
-1.054899
 10
-0.053764
 20
-1.071815999999999
 10
0.000397
 20
-1.089593
 10
0.063201
 20
-1.108229
 10
0.137008
 20
-1.127723999999999
 10
0.205071
 20
-1.130781
 10
0.268647
 20
-1.133359
 10
0.329466
 20
-1.135618
 10
0.38926
 20
-1.137717
 10
0.4497600000000001
 20
-1.139817
 10
0.5126970000000001
 20
-1.142076
 10
0.579803
 20
-1.144654
 10
0.6325350000000001
 20
-1.146670999999999
 10
0.685241
 20
-1.148554
 10
0.737923
 20
-1.150296999999999
 10
0.7905820000000001
 20
-1.151895
 10
0.843219
 20
-1.153342
 10
0.895833
 20
-1.154635
 10
0.948427
 20
-1.155768
 10
1.001001
 20
-1.156737
 10
1.053555
 20
-1.157536
 10
1.106092
 20
-1.15816
 10
1.158611
 20
-1.158604999999999
 10
1.211114
 20
-1.158865999999999
 10
1.263600999999999
 20
-1.158937
 10
1.316073
 20
-1.158814
 10
1.368530999999999
 20
-1.158492
 10
1.420976999999999
 20
-1.157966
 10
1.47341
 20
-1.157230999999999
 10
1.525832
 20
-1.156282
 10
1.578243999999999
 20
-1.155113999999999
 10
1.630645999999999
 20
-1.153723
 10
1.683038999999999
 20
-1.152103
 10
1.735424
 20
-1.150249
 10
1.787802999999999
 20
-1.148156999999999
 10
1.840174999999999
 20
-1.145821999999999
 10
1.892543
 20
-1.143237999999999
 10
1.944905999999999
 20
-1.140400999999999
 10
1.997265
 20
-1.137305
 10
2.049622
 20
-1.133947
 10
2.101977
 20
-1.130320999999999
  0
LWPOLYLINE
  5
1A0
330
1E
100
AcDbEntity
  8
LAYER_1
  6
CONTINUOUS
 62
   141
100
AcDbPolyline
 90
       53
 70
     1
 43
0.008
 10
2.068343
 20
-0.049154
 10
2.057713
 20
-0.04104
 10
2.045134999999999
 20
-0.03153
 10
2.030593999999999
 20
-0.020725
 10
2.014075999999999
 20
-0.008731
 10
1.995568
 20
0.004349
 10
1.975056
 20
0.018411
 10
1.952525999999999
 20
0.033352
 10
1.927965
 20
0.049067
 10
1.901358
 20
0.065452
 10
1.872691999999999
 20
0.082405
 10
1.841952999999999
 20
0.09982
 10
1.809127999999999
 20
0.117594
 10
1.774202999999999
 20
0.135624
 10
1.737163999999999
 20
0.153805
 10
1.697997
 20
0.172033
 10
1.656688999999999
 20
0.190206
 10
1.613224999999999
 20
0.208218
 10
1.567593
 20
0.225966
 10
1.519778
 20
0.243346
 10
1.469767
 20
0.260255
 10
1.417545
 20
0.276589
 10
1.363099999999999
 20
0.292243
 10
1.306416999999999
 20
0.307113
 10
1.247482999999999
 20
0.321097
 10
1.186284
 20
0.33409
 10
1.122805999999999
 20
0.345989
 10
1.057036
 20
0.356689
 10
0.988959
 20
0.366086
 10
0.918562
 20
0.374077
 10
0.8458319999999998
 20
0.380559
 10
0.7707540000000001
 20
0.385426
 10
0.6933150000000001
 20
0.388576
 10
0.613502
 20
0.389904
 10
0.531299
 20
0.389307
 10
0.4466940000000001
 20
0.386681
 10
0.359673
 20
0.381921
 10
0.359673
 20
0.381921
 10
0.519862
 20
-0.119476
 10
0.5648170000000001
 20
-0.177697
 10
0.6277140000000001
 20
-0.209291
 10
0.7021890000000001
 20
-0.222362
 10
1.510941
 20
-0.222362
 10
1.569892
 20
-0.217506
 10
1.632012
 20
-0.210701
 10
1.695695
 20
-0.20187
 10
1.759331
 20
-0.190938
 10
1.821311
 20
-0.177828
 10
1.880027
 20
-0.162463
 10
1.933869999999999
 20
-0.144768
 10
1.981231
 20
-0.124666
 10
2.020502999999999
 20
-0.10208
 10
2.050075999999999
 20
-0.076935
  0
LWPOLYLINE
  5
1D7
102
{ACAD_REACTORS
330
9D7
102
}
330
1E
100
AcDbEntity
  8
LAYER_1
  6
CONTINUOUS
 62
    39
100
AcDbPolyline
 90
       71
 70
     1
 43
0.008
 10
0.365854
 20
0.383878
 10
0.360079
 20
0.375433
 10
0.4576570000000001
 20
0.380634
 10
0.5521500000000001
 20
0.383154
 10
0.6436380000000001
 20
0.383138
 10
0.7320750000000001
 20
0.380732
 10
0.81752
 20
0.376091
 10
0.8999879999999999
 20
0.369382
 10
0.9794999999999999
 20
0.360705
 10
1.056067
 20
0.350252
 10
1.129747999999999
 20
0.338154
 10
1.200496
 20
0.324583
 10
1.268369999999999
 20
0.30963
 10
1.333412999999999
 20
0.2935
 10
1.395583
 20
0.276311
 10
1.454960999999999
 20
0.258217
 10
1.511535
 20
0.239358
 10
1.565306999999999
 20
0.219886
 10
1.616357999999999
 20
0.199953
 10
1.664645999999999
 20
0.17972
 10
1.710213
 20
0.159295
 10
1.753098
 20
0.138874
 10
1.793302999999999
 20
0.118555
 10
1.830842999999999
 20
0.098535
 10
1.865731999999999
 20
0.078937
 10
1.897999999999999
 20
0.059882
 10
1.927684999999999
 20
0.041567
 10
1.954786999999999
 20
0.024094
 10
1.979322999999999
 20
0.007665
 10
2.001330999999999
 20
-0.007634
 10
2.020818999999999
 20
-0.021626
 10
2.037790999999999
 20
-0.034157
 10
2.052331
 20
-0.045114
 10
2.064401999999999
 20
-0.054319
 10
2.072283
 20
-0.043988
 10
2.060165
 20
-0.034736
 10
2.045579
 20
-0.023732
 10
2.028449
 20
-0.011098
 10
2.008811
 20
0.002996
 10
1.986646
 20
0.018398
 10
1.961913
 20
0.034984
 10
1.934606
 20
0.052559
 10
1.904716999999999
 20
0.071024
 10
1.872197
 20
0.090181
 10
1.837047
 20
0.109929
 10
1.799256
 20
0.130106
 10
1.758799
 20
0.150528
 10
1.715653999999999
 20
0.171098
 10
1.669786999999999
 20
0.191626
 10
1.621193
 20
0.212008
 10
1.569881999999999
 20
0.2320429999999999
 10
1.515755999999999
 20
0.251618
 10
1.458873999999999
 20
0.270579
 10
1.399197
 20
0.288776
 10
1.336664999999999
 20
0.306067
 10
1.271322999999999
 20
0.322299
 10
1.203094
 20
0.337299
 10
1.131984
 20
0.350972
 10
1.058004
 20
0.363126
 10
0.981075
 20
0.373626
 10
0.901209
 20
0.382303
 10
0.8183859999999999
 20
0.389067
 10
0.732587
 20
0.393709
 10
0.6437870000000001
 20
0.3961139999999999
 10
0.5520000000000001
 20
0.3961300000000001
 10
0.457146
 20
0.39361
 10
0.359268
 20
0.388409
 10
0.353492
 20
0.379965
 10
0.359268
 20
0.388409
 10
0.351024
 20
0.387874
 10
0.353492
 20
0.379965
  0
LWPOLYLINE
  5
220
102
{ACAD_REACTORS
330
9D7
102
}
330
1E
100
AcDbEntity
  8
LAYER_1
  6
CONTINUOUS
 62
    39
100
AcDbPolyline
 90
        5
 70
     1
 43
0.008
 10
0.5139610000000001
 20
-0.122173
 10
0.5260430000000001
 20
-0.11752
 10
0.365854
 20
0.383878
 10
0.353492
 20
0.379965
 10
0.5136810000000001
 20
-0.121433
  0
LWPOLYLINE
  5
227
102
{ACAD_REACTORS
330
9D7
102
}
330
1E
100
AcDbEntity
  8
LAYER_1
  6
CONTINUOUS
 62
    39
100
AcDbPolyline
 90
       68
 70
     1
 43
0.008
 10
0.7021890000000001
 20
-0.21585
 10
0.702724
 20
-0.215874
 10
0.695496
 20
-0.215244
 10
0.68835
 20
-0.214488
 10
0.6812560000000002
 20
-0.21363
 10
0.6742239999999999
 20
-0.212681
 10
0.667283
 20
-0.211618
 10
0.660417
 20
-0.210425
 10
0.6536300000000001
 20
-0.209106
 10
0.6469450000000001
 20
-0.207646
 10
0.64035
 20
-0.206039
 10
0.63385
 20
-0.204311
 10
0.6274720000000001
 20
-0.202421
 10
0.621173
 20
-0.200362
 10
0.6150310000000001
 20
-0.198165
 10
0.608984
 20
-0.195783
 10
0.6030750000000001
 20
-0.193224
 10
0.597295
 20
-0.190488
 10
0.591646
 20
-0.187559
 10
0.58615
 20
-0.184457
 10
0.5807760000000001
 20
-0.181134
 10
0.5755670000000001
 20
-0.177622
 10
0.570512
 20
-0.173909
 10
0.565591
 20
-0.169961
 10
0.56085
 20
-0.16578
 10
0.5562520000000001
 20
-0.161378
 10
0.5518270000000002
 20
-0.156724
 10
0.547551
 20
-0.151835
 10
0.543484
 20
-0.146681
 10
0.539555
 20
-0.141256
 10
0.5358430000000001
 20
-0.135579
 10
0.532276
 20
-0.129614
 10
0.5289410000000001
 20
-0.123358
 10
0.5257640000000001
 20
-0.11678
 10
0.5139610000000001
 20
-0.122173
 10
0.517343
 20
-0.129209
 10
0.520984
 20
-0.135976
 10
0.524803
 20
-0.142445
 10
0.52887
 20
-0.148634
 10
0.5331060000000001
 20
-0.154516
 10
0.5375830000000001
 20
-0.160126
 10
0.5422130000000001
 20
-0.165472
 10
0.5470470000000001
 20
-0.170535
 10
0.5520470000000001
 20
-0.175346
 10
0.557244
 20
-0.179882
 10
0.562575
 20
-0.184185
 10
0.5680870000000001
 20
-0.188252
 10
0.573752
 20
-0.192071
 10
0.579535
 20
-0.195646
 10
0.585488
 20
-0.199008
 10
0.5915470000000001
 20
-0.202142
 10
0.597736
 20
-0.205075
 10
0.604047
 20
-0.207791
 10
0.6104569999999999
 20
-0.210323
 10
0.617
 20
-0.212677
 10
0.6236060000000001
 20
-0.214831
 10
0.6303390000000001
 20
-0.216823
 10
0.637146
 20
-0.218654
 10
0.6440470000000001
 20
-0.220315
 10
0.6510310000000001
 20
-0.221823
 10
0.658079
 20
-0.223197
 10
0.6651970000000001
 20
-0.224437
 10
0.67239
 20
-0.225555
 10
0.6796260000000001
 20
-0.226551
 10
0.686925
 20
-0.227409
 10
0.694276
 20
-0.228165
 10
0.701654
 20
-0.22885
 10
0.7021890000000001
 20
-0.228874
  0
LWPOLYLINE
  5
26D
102
{ACAD_REACTORS
330
9D7
102
}
330
1E
100
AcDbEntity
  8
LAYER_1
  6
CONTINUOUS
 62
    39
100
AcDbPolyline
 90
        5
 70
     1
 43
0.008
 10
1.511373999999999
 20
-0.22885
 10
1.510941
 20
-0.21585
 10
0.7021890000000001
 20
-0.21585
 10
0.7021890000000001
 20
-0.228874
 10
1.510941
 20
-0.228874
  0
LWPOLYLINE
  5
274
102
{ACAD_REACTORS
330
9D7
102
}
330
1E
100
AcDbEntity
  8
LAYER_1
  6
CONTINUOUS
 62
    39
100
AcDbPolyline
 90
       71
 70
     1
 43
0.008
 10
2.064401999999999
 20
-0.054319
 10
2.062339
 20
-0.046661
 10
2.057818999999999
 20
-0.055748
 10
2.051886
 20
-0.064622
 10
2.044559
 20
-0.073335
 10
2.035874
 20
-0.081835
 10
2.025901999999999
 20
-0.090134
 10
2.014704999999999
 20
-0.098173
 10
2.002318999999999
 20
-0.105965
 10
1.988843
 20
-0.113508
 10
1.974311
 20
-0.12078
 10
1.958839
 20
-0.127783
 10
1.942472
 20
-0.134524
 10
1.925272
 20
-0.141004
 10
1.907302999999999
 20
-0.147177
 10
1.888661
 20
-0.153122
 10
1.869378
 20
-0.15876
 10
1.849550999999999
 20
-0.16415
 10
1.829213
 20
-0.169272
 10
1.808465
 20
-0.174122
 10
1.787366
 20
-0.178709
 10
1.765952999999999
 20
-0.183035
 10
1.74435
 20
-0.187126
 10
1.722570999999999
 20
-0.190941
 10
1.700697
 20
-0.194528
 10
1.678775999999999
 20
-0.197835
 10
1.656920999999999
 20
-0.200925
 10
1.635177
 20
-0.203748
 10
1.613579
 20
-0.206354
 10
1.592239999999999
 20
-0.2087239999999999
 10
1.571180999999999
 20
-0.210862
 10
1.550495999999999
 20
-0.21274
 10
1.530263999999999
 20
-0.214421
 10
1.510507999999999
 20
-0.215874
 10
1.511373999999999
 20
-0.22885
 10
1.531231999999999
 20
-0.227398
 10
1.551614
 20
-0.225717
 10
1.572402
 20
-0.223783
 10
1.593562999999999
 20
-0.221646
 10
1.615051
 20
-0.219276
 10
1.636751999999999
 20
-0.216669
 10
1.658654
 20
-0.213799
 10
1.680657
 20
-0.210709
 10
1.702681
 20
-0.207346
 10
1.724704999999999
 20
-0.20376
 10
1.746641999999999
 20
-0.199898
 10
1.768449
 20
-0.195807
 10
1.790011999999999
 20
-0.191425
 10
1.811315
 20
-0.186791
 10
1.832268
 20
-0.181886
 10
1.852802999999999
 20
-0.176717
 10
1.87289
 20
-0.171272
 10
1.892425
 20
-0.165531
 10
1.911374
 20
-0.159539
 10
1.92965
 20
-0.153217
 10
1.947204999999999
 20
-0.146634
 10
1.963979999999999
 20
-0.139736
 10
1.979908999999999
 20
-0.132528
 10
1.994898
 20
-0.125004
 10
2.008933
 20
-0.117154
 10
2.021924999999999
 20
-0.108961
 10
2.033838999999999
 20
-0.100409
 10
2.044575
 20
-0.091504
 10
2.054070999999999
 20
-0.082185
 10
2.062263999999999
 20
-0.072457
 10
2.069063
 20
-0.06226
 10
2.074345999999999
 20
-0.051646
 10
2.072283
 20
-0.043988
 10
2.074345999999999
 20
-0.051646
 10
2.076252
 20
-0.047043
 10
2.072283
 20
-0.043988
  0
SOLID
  5
2BD
330
1E
100
AcDbEntity
  8
LAYER_1
  6
CONTINUOUS
 62
    39
100
AcDbTrace
 10
2.289735999999999
 20
-0.083012
 30
0.0
 11
2.289735999999999
 21
-0.077803
 31
0.0
 12
2.279318999999999
 22
-0.083012
 32
0.0
 13
2.279318999999999
 23
-0.077803
 33
0.0
  0
LWPOLYLINE
  5
2BE
330
1E
100
AcDbEntity
  8
LAYER_1
  6
CONTINUOUS
 62
    39
100
AcDbPolyline
 90
        4
 70
     1
 43
0.008
 10
2.289735999999999
 20
-0.083012
 10
2.289735999999999
 20
-0.077803
 10
2.279318999999999
 20
-0.077803
 10
2.279318999999999
 20
-0.083012
  0
LWPOLYLINE
  5
2C4
330
1E
100
AcDbEntity
  8
LAYER_1
  6
CONTINUOUS
 62
    39
100
AcDbPolyline
 90
       66
 70
     1
 43
0.008
 10
2.201645999999999
 20
-0.4283350000000001
 10
2.206563
 20
-0.420457
 10
2.211374
 20
-0.4121930000000001
 10
2.216059
 20
-0.4036020000000001
 10
2.220638
 20
-0.394701
 10
2.225083
 20
-0.385469
 10
2.229429
 20
-0.375961
 10
2.233641999999999
 20
-0.366181
 10
2.237724
 20
-0.356157
 10
2.241665
 20
-0.345874
 10
2.245499999999999
 20
-0.335382
 10
2.249176999999999
 20
-0.324689
 10
2.252736
 20
-0.313799
 10
2.256141999999999
 20
-0.302736
 10
2.259402
 20
-0.291528
 10
2.262516
 20
-0.280173
 10
2.265483999999999
 20
-0.268717
 10
2.268295
 20
-0.257142
 10
2.270949
 20
-0.2455
 10
2.273429
 20
-0.233772
 10
2.27576
 20
-0.221988
 10
2.277932999999999
 20
-0.210193
 10
2.279913
 20
-0.198366
 10
2.28174
 20
-0.186555
 10
2.28337
 20
-0.174748
 10
2.284838999999999
 20
-0.162972
 10
2.286109999999999
 20
-0.151252
 10
2.287212999999999
 20
-0.139606
 10
2.288101999999999
 20
-0.128043
 10
2.288802999999999
 20
-0.116587
 10
2.289306999999999
 20
-0.105256
 10
2.289633999999999
 20
-0.094047
 10
2.289735999999999
 20
-0.083012
 10
2.279318999999999
 20
-0.083012
 10
2.279216999999999
 20
-0.093882
 10
2.278929
 20
-0.104886
 10
2.278424999999999
 20
-0.116059
 10
2.277724
 20
-0.12735
 10
2.276834999999999
 20
-0.138748
 10
2.275771999999999
 20
-0.150236
 10
2.2745
 20
-0.161791
 10
2.273070999999999
 20
-0.173402
 10
2.271440999999999
 20
-0.185051
 10
2.269654
 20
-0.196736
 10
2.267672999999999
 20
-0.208406
 10
2.265547
 20
-0.220075
 10
2.263256
 20
-0.231693
 10
2.260775999999999
 20
-0.243264
 10
2.258160999999999
 20
-0.25478
 10
2.25539
 20
-0.266197
 10
2.252461
 20
-0.277528
 10
2.249393999999999
 20
-0.288717
 10
2.246172999999999
 20
-0.299768
 10
2.242806999999999
 20
-0.310665
 10
2.239326999999999
 20
-0.32139
 10
2.235688999999999
 20
-0.331925
 10
2.231940999999999
 20
-0.342252
 10
2.228038999999999
 20
-0.352331
 10
2.224034999999999
 20
-0.362189
 10
2.219908999999999
 20
-0.371772
 10
2.215681
 20
-0.381075
 10
2.211315
 20
-0.390063
 10
2.206862
 20
-0.39876
 10
2.202294999999999
 20
-0.407106
 10
2.197649999999999
 20
-0.415087
 10
2.192898
 20
-0.42272
  0
SOLID
  5
308
330
1E
100
AcDbEntity
  8
LAYER_1
  6
CONTINUOUS
 62
    39
100
AcDbTrace
 10
2.192898
 20
-0.42272
 30
0.0
 11
2.190090999999999
 21
-0.427094
 31
0.0
 12
2.201645999999999
 22
-0.4283350000000001
 32
0.0
 13
2.198838999999999
 23
-0.432709
 33
0.0
  0
LWPOLYLINE
  5
309
330
1E
100
AcDbEntity
  8
LAYER_1
  6
CONTINUOUS
 62
    39
100
AcDbPolyline
 90
        4
 70
     1
 43
0.008
 10
2.192898
 20
-0.42272
 10
2.190090999999999
 20
-0.427094
 10
2.198838999999999
 20
-0.432709
 10
2.201645999999999
 20
-0.4283350000000001
  0
LWPOLYLINE
  5
30F
330
1E
100
AcDbEntity
  8
LAYER_1
  6
CONTINUOUS
 62
   141
100
AcDbPolyline
 90
       16
 70
     1
 43
0.008
 10
-0.383961
 20
-0.253618
 10
0.001531
 20
-0.252315
 10
0.063126
 20
-0.237315
 10
0.107936
 20
-0.200898
 10
0.125252
 20
-0.14422
 10
0.05102
 20
0.10322
 10
0.002449
 20
0.157727
 10
-0.059725
 20
0.175478
 10
-0.135213
 20
0.168339
 10
-0.4412640000000001
 20
0.0915
 10
-0.492488
 20
0.079973
 10
-0.5298220000000001
 20
0.049633
 10
-0.5428460000000001
 20
-0.000965
 10
-0.4881460000000001
 20
-0.181988
 10
-0.4672140000000001
 20
-0.224002
 10
-0.4318109999999999
 20
-0.24894
  0
LWPOLYLINE
  5
321
102
{ACAD_REACTORS
330
A5F
102
}
330
1E
100
AcDbEntity
  8
LAYER_1
  6
CONTINUOUS
 62
    39
100
AcDbPolyline
 90
        5
 70
     1
 43
0.008
 10
0.001839
 20
-0.257504
 10
0.001531
 20
-0.247106
 10
-0.383961
 20
-0.248409
 10
-0.383961
 20
-0.258827
 10
0.001531
 20
-0.257524
  0
LWPOLYLINE
  5
328
102
{ACAD_REACTORS
330
A5F
102
}
330
1E
100
AcDbEntity
  8
LAYER_1
  6
CONTINUOUS
 62
    39
100
AcDbPolyline
 90
       68
 70
     1
 43
0.008
 10
0.120268
 20
-0.145705
 10
0.120043
 20
-0.14422
 10
0.119898
 20
-0.150098
 10
0.119421
 20
-0.155768
 10
0.11865
 20
-0.161287
 10
0.117594
 20
-0.166614
 10
0.116256
 20
-0.171791
 10
0.114622
 20
-0.176799
 10
0.112748
 20
-0.181626
 10
0.110598
 20
-0.186283
 10
0.108209
 20
-0.190783
 10
0.105579
 20
-0.19511
 10
0.102705
 20
-0.199276
 10
0.099591
 20
-0.203287
 10
0.096264
 20
-0.207134
 10
0.09274
 20
-0.210803
 10
0.08898
 20
-0.214315
 10
0.085043
 20
-0.217661
 10
0.08089
 20
-0.220846
 10
0.076567
 20
-0.223846
 10
0.072067
 20
-0.226681
 10
0.067406
 20
-0.229331
 10
0.062555
 20
-0.231815
 10
0.057583
 20
-0.234134
 10
0.052441
 20
-0.236256
 10
0.047173
 20
-0.238213
 10
0.041776
 20
-0.23998
 10
0.036272
 20
-0.241555
 10
0.030654
 20
-0.242957
 10
0.024941
 20
-0.244165
 10
0.019118
 20
-0.245197
 10
0.013236
 20
-0.24602
 10
0.00726
 20
-0.246681
 10
0.001224
 20
-0.247126
 10
0.001839
 20
-0.257504
 10
0.008197
 20
-0.25702
 10
0.014496
 20
-0.256358
 10
0.020748
 20
-0.255457
 10
0.026894
 20
-0.254378
 10
0.032976
 20
-0.253091
 10
0.038957
 20
-0.25161
 10
0.044831
 20
-0.249909
 10
0.050591
 20
-0.248024
 10
0.056228
 20
-0.245941
 10
0.061732
 20
-0.243654
 10
0.067114
 20
-0.241177
 10
0.072327
 20
-0.238488
 10
0.077398
 20
-0.235594
 10
0.082307
 20
-0.232516
 10
0.087031
 20
-0.229232
 10
0.091555
 20
-0.225764
 10
0.095902
 20
-0.222087
 10
0.100024
 20
-0.218213
 10
0.103957
 20
-0.214134
 10
0.107646
 20
-0.209878
 10
0.111091
 20
-0.205417
 10
0.114287
 20
-0.200764
 10
0.11724
 20
-0.195909
 10
0.119921
 20
-0.190882
 10
0.122315
 20
-0.185657
 10
0.124433
 20
-0.180256
 10
0.126224
 20
-0.174681
 10
0.127728
 20
-0.168937
 10
0.128909
 20
-0.162996
 10
0.12976
 20
-0.156909
 10
0.130276
 20
-0.150626
 10
0.130461
 20
-0.14422
 10
0.130236
 20
-0.142736
  0
LWPOLYLINE
  5
36E
102
{ACAD_REACTORS
330
A5F
102
}
330
1E
100
AcDbEntity
  8
LAYER_1
  6
CONTINUOUS
 62
    39
100
AcDbPolyline
 90
        5
 70
     1
 43
0.008
 10
0.055598
 20
0.105705
 10
0.046035
 20
0.101736
 10
0.120268
 20
-0.145705
 10
0.130236
 20
-0.142736
 10
0.056004
 20
0.104705
  0
LWPOLYLINE
  5
375
102
{ACAD_REACTORS
330
A5F
102
}
330
1E
100
AcDbEntity
  8
LAYER_1
  6
CONTINUOUS
 62
    39
100
AcDbPolyline
 90
       68
 70
     1
 43
0.008
 10
-0.133953
 20
0.163291
 10
-0.134256
 20
0.163232
 10
-0.126685
 20
0.164614
 10
-0.119224
 20
0.165898
 10
-0.111902
 20
0.167028
 10
-0.104713
 20
0.168031
 10
-0.097638
 20
0.168862
 10
-0.090701
 20
0.169528
 10
-0.083882
 20
0.170043
 10
-0.077201
 20
0.170374
 10
-0.07063
 20
0.170492
 10
-0.064177
 20
0.170429
 10
-0.057886
 20
0.170173
 10
-0.051709
 20
0.169693
 10
-0.045669
 20
0.168984
 10
-0.039768
 20
0.168055
 10
-0.033984
 20
0.166874
 10
-0.028339
 20
0.165453
 10
-0.022811
 20
0.163756
 10
-0.017425
 20
0.161823
 10
-0.012138
 20
0.159598
 10
-0.006988
 20
0.157094
 10
-0.001937
 20
0.154299
 10
0.002996
 20
0.151205
 10
0.007827
 20
0.147783
 10
0.012539
 20
0.14402
 10
0.017154
 20
0.139953
 10
0.021646
 20
0.1355
 10
0.026035
 20
0.130685
 10
0.030327
 20
0.125504
 10
0.03452
 20
0.119921
 10
0.038606
 20
0.113961
 10
0.042575
 20
0.107567
 10
0.046441
 20
0.100736
 10
0.055598
 20
0.105705
 10
0.051528
 20
0.112858
 10
0.047315
 20
0.119614
 10
0.042984
 20
0.125984
 10
0.038508
 20
0.131937
 10
0.033894
 20
0.13752
 10
0.029134
 20
0.142705
 10
0.024232
 20
0.14752
 10
0.019217
 20
0.151996
 10
0.014055
 20
0.156083
 10
0.008776
 20
0.159835
 10
0.003354
 20
0.163252
 10
-0.002185
 20
0.166331
 10
-0.007862
 20
0.169079
 10
-0.013638
 20
0.171508
 10
-0.019559
 20
0.173646
 10
-0.025575
 20
0.175461
 10
-0.031709
 20
0.177008
 10
-0.037933
 20
0.178268
 10
-0.044283
 20
0.179283
 10
-0.050732
 20
0.180031
 10
-0.057272
 20
0.180551
 10
-0.063933
 20
0.180846
 10
-0.070669
 20
0.180909
 10
-0.077524
 20
0.180752
 10
-0.084496
 20
0.180421
 10
-0.091559
 20
0.179906
 10
-0.09874
 20
0.179201
 10
-0.106012
 20
0.178331
 10
-0.113406
 20
0.177327
 10
-0.120894
 20
0.176157
 10
-0.128472
 20
0.174874
 10
-0.136169
 20
0.173445
 10
-0.136472
 20
0.173386
  0
LWPOLYLINE
  5
3BB
102
{ACAD_REACTORS
330
A5F
102
}
330
1E
100
AcDbEntity
  8
LAYER_1
  6
CONTINUOUS
 62
    39
100
AcDbPolyline
 90
        5
 70
     1
 43
0.008
 10
-0.44102
 20
0.086311
 10
-0.440004
 20
0.086453
 10
-0.133953
 20
0.163291
 10
-0.136472
 20
0.173386
 10
-0.442524
 20
0.096547
  0
LWPOLYLINE
  5
3C2
102
{ACAD_REACTORS
330
A5F
102
}
330
1E
100
AcDbEntity
  8
LAYER_1
  6
CONTINUOUS
 62
    39
100
AcDbPolyline
 90
       68
 70
     1
 43
0.008
 10
-0.537862
 20
0.000539
 10
-0.537657
 20
-0.00076
 10
-0.537732
 20
0.004638
 10
-0.537547
 20
0.009807
 10
-0.537075
 20
0.014768
 10
-0.5363660000000001
 20
0.019559
 10
-0.5353820000000001
 20
0.024146
 10
-0.5341610000000001
 20
0.028547
 10
-0.532705
 20
0.032768
 10
-0.531024
 20
0.036803
 10
-0.529126
 20
0.040677
 10
-0.5270199999999999
 20
0.044374
 10
-0.524717
 20
0.047909
 10
-0.522201
 20
0.051287
 10
-0.5194840000000001
 20
0.054492
 10
-0.5166140000000001
 20
0.057539
 10
-0.5135350000000001
 20
0.060453
 10
-0.510287
 20
0.063193
 10
-0.5068859999999999
 20
0.065787
 10
-0.503311
 20
0.068224
 10
-0.499598
 20
0.070496
 10
-0.495728
 20
0.072642
 10
-0.4917200000000001
 20
0.074598
 10
-0.4875910000000001
 20
0.076425
 10
-0.483343
 20
0.078094
 10
-0.478972
 20
0.079618
 10
-0.4744960000000001
 20
0.08098
 10
-0.469933
 20
0.082197
 10
-0.465283
 20
0.08326
 10
-0.4605470000000001
 20
0.084161
 10
-0.4557600000000001
 20
0.084925
 10
-0.450898
 20
0.085535
 10
-0.445988
 20
0.085992
 10
-0.44102
 20
0.086311
 10
-0.441508
 20
0.096689
 10
-0.4467600000000001
 20
0.09637
 10
-0.4520000000000001
 20
0.095874
 10
-0.4571850000000001
 20
0.095224
 10
-0.4623350000000001
 20
0.094421
 10
-0.4674020000000001
 20
0.093433
 10
-0.4724130000000001
 20
0.092291
 10
-0.477346
 20
0.090988
 10
-0.4821850000000001
 20
0.089508
 10
-0.486925
 20
0.087858
 10
-0.491583
 20
0.086031
 10
-0.4961140000000001
 20
0.084039
 10
-0.5005310000000001
 20
0.081839
 10
-0.5048110000000001
 20
0.079488
 10
-0.508965
 20
0.076933
 10
-0.512949
 20
0.074213
 10
-0.516799
 20
0.071295
 10
-0.520457
 20
0.068185
 10
-0.523937
 20
0.064909
 10
-0.5272560000000001
 20
0.061413
 10
-0.5303430000000001
 20
0.05772
 10
-0.5332200000000001
 20
0.053854
 10
-0.535894
 20
0.049783
 10
-0.5383230000000001
 20
0.04552
 10
-0.540504
 20
0.041079
 10
-0.5424290000000001
 20
0.036429
 10
-0.544091
 20
0.031602
 10
-0.5454760000000001
 20
0.026587
 10
-0.5465790000000001
 20
0.021394
 10
-0.5474130000000001
 20
0.016028
 10
-0.5479250000000001
 20
0.010461
 10
-0.5481500000000001
 20
0.004717
 10
-0.5480350000000001
 20
-0.001169
 10
-0.5478310000000001
 20
-0.002469
  0
LWPOLYLINE
  5
408
102
{ACAD_REACTORS
330
A5F
102
}
330
1E
100
AcDbEntity
  8
LAYER_1
  6
CONTINUOUS
 62
    39
100
AcDbPolyline
 90
        5
 70
     1
 43
0.008
 10
-0.4831180000000001
 20
-0.180665
 10
-0.483161
 20
-0.180484
 10
-0.537862
 20
0.000539
 10
-0.5478310000000001
 20
-0.002469
 10
-0.4931300000000001
 20
-0.183492
  0
LWPOLYLINE
  5
40F
102
{ACAD_REACTORS
330
A5F
102
}
330
1E
100
AcDbEntity
  8
LAYER_1
  6
CONTINUOUS
 62
    39
100
AcDbPolyline
 90
       68
 70
     1
 43
0.008
 10
-0.383961
 20
-0.248409
 10
-0.384571
 20
-0.248449
 10
-0.3893499999999999
 20
-0.248937
 10
-0.393992
 20
-0.24924
 10
-0.398559
 20
-0.249327
 10
-0.403031
 20
-0.249252
 10
-0.4073820000000001
 20
-0.248961
 10
-0.4116140000000001
 20
-0.248516
 10
-0.4157720000000001
 20
-0.247862
 10
-0.419799
 20
-0.247067
 10
-0.42372
 20
-0.246083
 10
-0.4275590000000001
 20
-0.244913
 10
-0.431264
 20
-0.243587
 10
-0.434862
 20
-0.242106
 10
-0.4383700000000001
 20
-0.240469
 10
-0.441744
 20
-0.238657
 10
-0.44502
 20
-0.236677
 10
-0.448205
 20
-0.234551
 10
-0.451268
 20
-0.232283
 10
-0.4542130000000001
 20
-0.22985
 10
-0.4570550000000001
 20
-0.227264
 10
-0.459776
 20
-0.224535
 10
-0.462386
 20
-0.221657
 10
-0.464878
 20
-0.218626
 10
-0.46726
 20
-0.215472
 10
-0.4695280000000001
 20
-0.21215
 10
-0.471669
 20
-0.208681
 10
-0.473693
 20
-0.205094
 10
-0.475583
 20
-0.201346
 10
-0.4773620000000001
 20
-0.197488
 10
-0.478996
 20
-0.193472
 10
-0.480492
 20
-0.189331
 10
-0.48187
 20
-0.185063
 10
-0.4831180000000001
 20
-0.180665
 10
-0.493173
 20
-0.183311
 10
-0.4918390000000001
 20
-0.188071
 10
-0.4903430000000001
 20
-0.192709
 10
-0.4886810000000001
 20
-0.19722
 10
-0.486882
 20
-0.201598
 10
-0.484945
 20
-0.205866
 10
-0.48285
 20
-0.209976
 10
-0.4806220000000001
 20
-0.213972
 10
-0.478236
 20
-0.217803
 10
-0.475724
 20
-0.221496
 10
-0.4730590000000001
 20
-0.225059
 10
-0.470244
 20
-0.228453
 10
-0.467303
 20
-0.231701
 10
-0.46422
 20
-0.234791
 10
-0.461008
 20
-0.237709
 10
-0.457654
 20
-0.240465
 10
-0.4541890000000001
 20
-0.243055
 10
-0.4505939999999999
 20
-0.245465
 10
-0.4468700000000001
 20
-0.247689
 10
-0.4430080000000001
 20
-0.249744
 10
-0.439051
 20
-0.251626
 10
-0.434965
 20
-0.253311
 10
-0.4307720000000001
 20
-0.254803
 10
-0.4264840000000001
 20
-0.256091
 10
-0.422075
 20
-0.257201
 10
-0.417559
 20
-0.258122
 10
-0.412961
 20
-0.258815
 10
-0.40824
 20
-0.259339
 10
-0.4034410000000001
 20
-0.25963
 10
-0.398559
 20
-0.259744
 10
-0.393583
 20
-0.2596179999999999
 10
-0.388492
 20
-0.259315
 10
-0.38335
 20
-0.258787
 10
-0.383961
 20
-0.258827
  0
SOLID
  5
455
330
1E
100
AcDbEntity
  8
LAYER_1
  6
CONTINUOUS
 62
    39
100
AcDbTrace
 10
0.371642
 20
-0.4492130000000001
 30
0.0
 11
0.373189
 21
-0.4541770000000001
 31
0.0
 12
0.381571
 22
-0.4461180000000001
 32
0.0
 13
0.383118
 23
-0.4510830000000001
 33
0.0
  0
LWPOLYLINE
  5
456
330
1E
100
AcDbEntity
  8
LAYER_1
  6
CONTINUOUS
 62
    39
100
AcDbPolyline
 90
        4
 70
     1
 43
0.008
 10
0.371642
 20
-0.4492130000000001
 10
0.373189
 20
-0.4541770000000001
 10
0.383118
 20
-0.4510830000000001
 10
0.381571
 20
-0.4461180000000001
  0
SOLID
  5
45C
330
1E
100
AcDbEntity
  8
LAYER_1
  6
CONTINUOUS
 62
    39
100
AcDbTrace
 10
0.118988
 20
0.35563
 30
0.0
 11
0.371642
 21
-0.4492130000000001
 31
0.0
 12
0.128917
 22
0.358724
 32
0.0
 13
0.381571
 23
-0.4461180000000001
 33
0.0
  0
LWPOLYLINE
  5
45D
330
1E
100
AcDbEntity
  8
LAYER_1
  6
CONTINUOUS
 62
    39
100
AcDbPolyline
 90
        4
 70
     1
 43
0.008
 10
0.118988
 20
0.35563
 10
0.371642
 20
-0.4492130000000001
 10
0.381571
 20
-0.4461180000000001
 10
0.128917
 20
0.358724
  0
SOLID
  5
463
330
1E
100
AcDbEntity
  8
LAYER_1
  6
CONTINUOUS
 62
    39
100
AcDbTrace
 10
0.128917
 20
0.358724
 30
0.0
 11
0.12737
 21
0.363689
 31
0.0
 12
0.118988
 22
0.35563
 32
0.0
 13
0.117441
 23
0.360594
 33
0.0
  0
LWPOLYLINE
  5
464
330
1E
100
AcDbEntity
  8
LAYER_1
  6
CONTINUOUS
 62
    39
100
AcDbPolyline
 90
        4
 70
     1
 43
0.008
 10
0.128917
 20
0.358724
 10
0.12737
 20
0.363689
 10
0.117441
 20
0.360594
 10
0.118988
 20
0.35563
  0
LWPOLYLINE
  5
46A
330
1E
100
AcDbEntity
  8
LAYER_1
  6
CONTINUOUS
 62
    39
100
AcDbPolyline
 90
        4
 70
     0
 43
0.010417
 10
-4.052267999999999
 20
-0.099547
 10
-4.517579
 20
0.982299
 10
-4.353483999999999
 20
1.082579
 10
-4.404276
 20
1.169834999999999
  0
LWPOLYLINE
  5
470
330
1E
100
AcDbEntity
  8
LAYER_1
  6
CONTINUOUS
 62
    39
100
AcDbPolyline
 90
        2
 70
     0
 43
0.010417
 10
-3.840366
 20
-0.592228
 10
-4.022555
 20
-0.168622
  0
LWPOLYLINE
  5
474
330
1E
100
AcDbEntity
  8
LAYER_1
  6
CONTINUOUS
 62
    39
100
AcDbPolyline
 90
       68
 70
     1
 43
0.010417
 10
-4.348969
 20
-0.13124
 10
-4.348866
 20
-0.141559
 10
-4.292527999999999
 20
-0.133846
 10
-4.235622
 20
-0.12661
 10
-4.178294999999999
 20
-0.119807
 10
-4.120732
 20
-0.113461
 10
-4.063030999999999
 20
-0.107575
 10
-4.005381999999999
 20
-0.10215
 10
-3.947905999999999
 20
-0.097213
 10
-3.890811
 20
-0.09272
 10
-3.834219999999999
 20
-0.088697
 10
-3.778287
 20
-0.085146
 10
-3.723176999999999
 20
-0.082067
 10
-3.669030999999999
 20
-0.079465
 10
-3.616008
 20
-0.077343
 10
-3.564268
 20
-0.075705
 10
-3.513975999999999
 20
-0.074547
 10
-3.465251999999999
 20
-0.073894
 10
-3.418267999999999
 20
-0.073713
 10
-3.373197
 20
-0.074
 10
-3.330169
 20
-0.074803
 10
-3.28935
 20
-0.076098
 10
-3.250925
 20
-0.077894
 10
-3.214987999999999
 20
-0.080189
 10
-3.181759999999999
 20
-0.082965
 10
-3.151365999999999
 20
-0.086268
 10
-3.123972
 20
-0.090039
 10
-3.099756
 20
-0.094335
 10
-3.07889
 20
-0.099087
 10
-3.061590999999999
 20
-0.104311
 10
-3.048050999999999
 20
-0.109933
 10
-3.038559
 20
-0.115744
 10
-3.033263999999999
 20
-0.121307
 10
-3.031593999999999
 20
-0.126232
 10
-3.021217
 20
-0.125744
 10
-3.024429
 20
-0.115811
 10
-3.032125999999999
 20
-0.107563
 10
-3.043413
 20
-0.10061
 10
-3.058133999999999
 20
-0.0945
 10
-3.076283
 20
-0.089031
 10
-3.097724
 20
-0.084122
 10
-3.122381999999999
 20
-0.07978
 10
-3.150106
 20
-0.075929
 10
-3.180783
 20
-0.072626
 10
-3.214256
 20
-0.069811
 10
-3.250358
 20
-0.067516
 10
-3.28898
 20
-0.06572
 10
-3.329924999999999
 20
-0.064425
 10
-3.373070999999999
 20
-0.063622
 10
-3.418267999999999
 20
-0.063295
 10
-3.465330999999999
 20
-0.063476
 10
-3.514141999999999
 20
-0.064169
 10
-3.564551
 20
-0.065327
 10
-3.616378
 20
-0.066965
 10
-3.66948
 20
-0.069087
 10
-3.723705
 20
-0.071689
 10
-3.778901999999999
 20
-0.074768
 10
-3.834912999999999
 20
-0.078319
 10
-3.891583
 20
-0.082343
 10
-3.948764
 20
-0.086835
 10
-4.00628
 20
-0.091811
 10
-4.064008
 20
-0.097236
 10
-4.121787
 20
-0.103122
 10
-4.179476
 20
-0.109469
 10
-4.236881999999999
 20
-0.116272
 10
-4.293873999999999
 20
-0.123547
 10
-4.350291
 20
-0.13126
 10
-4.350189
 20
-0.141579
  0
LWPOLYLINE
  5
4BA
330
1E
100
AcDbEntity
  8
LAYER_1
  6
CONTINUOUS
 62
    39
100
AcDbPolyline
 90
       68
 70
     1
 43
0.010417
 10
-3.031593999999999
 20
-0.126232
 10
-3.031593999999999
 20
-0.126213
 10
-3.032743999999999
 20
-0.131197
 10
-3.037366
 20
-0.136736
 10
-3.046149999999999
 20
-0.142681
 10
-3.058988
 20
-0.148496
 10
-3.075677
 20
-0.153988
 10
-3.095952999999999
 20
-0.159083
 10
-3.119606
 20
-0.163701
 10
-3.146504
 20
-0.167886
 10
-3.176436999999999
 20
-0.171598
 10
-3.209248
 20
-0.174839
 10
-3.244787
 20
-0.17763
 10
-3.282905999999999
 20
-0.179953
 10
-3.323428999999999
 20
-0.181815
 10
-3.366223999999999
 20
-0.183209
 10
-3.411122
 20
-0.184142
 10
-3.457983999999999
 20
-0.184594
 10
-3.50665
 20
-0.18461
 10
-3.556953
 20
-0.184189
 10
-3.608755999999999
 20
-0.183295
 10
-3.661901999999999
 20
-0.181949
 10
-3.716231999999999
 20
-0.180154
 10
-3.771601999999999
 20
-0.177909
 10
-3.827857999999999
 20
-0.175217
 10
-3.884869999999999
 20
-0.172079
 10
-3.942437
 20
-0.1685
 10
-4.000441
 20
-0.164484
 10
-4.05872
 20
-0.160024
 10
-4.117122
 20
-0.15513
 10
-4.175504
 20
-0.149819
 10
-4.233705
 20
-0.144059
 10
-4.291574999999999
 20
-0.137862
 10
-4.348969
 20
-0.13124
 10
-4.350189
 20
-0.141579
 10
-4.292716999999999
 20
-0.148201
 10
-4.234759999999999
 20
-0.154398
 10
-4.17648
 20
-0.160157
 10
-4.118019999999999
 20
-0.165508
 10
-4.059530999999999
 20
-0.170402
 10
-4.001173
 20
-0.174862
 10
-3.943091
 20
-0.178878
 10
-3.885437
 20
-0.182457
 10
-3.828386
 20
-0.185594
 10
-3.772051
 20
-0.188287
 10
-3.716601999999999
 20
-0.190531
 10
-3.662185
 20
-0.192327
 10
-3.608960999999999
 20
-0.193673
 10
-3.557078999999999
 20
-0.194567
 10
-3.506688999999999
 20
-0.195028
 10
-3.457944999999999
 20
-0.195012
 10
-3.410995999999999
 20
-0.19452
 10
-3.36598
 20
-0.193587
 10
-3.323058999999999
 20
-0.192193
 10
-3.282378
 20
-0.190331
 10
-3.244094
 20
-0.188008
 10
-3.208349999999999
 20
-0.185217
 10
-3.175295
 20
-0.181937
 10
-3.145078999999999
 20
-0.178185
 10
-3.117858
 20
-0.173961
 10
-3.093716999999999
 20
-0.169217
 10
-3.072827
 20
-0.163996
 10
-3.055286999999999
 20
-0.15822
 10
-3.041141999999999
 20
-0.151799
 10
-3.030483999999999
 20
-0.144547
 10
-3.023508
 20
-0.135921
 10
-3.021217
 20
-0.125764
 10
-3.021217
 20
-0.125744
  0
LWPOLYLINE
  5
500
330
1E
100
AcDbEntity
  8
LAYER_1
  6
CONTINUOUS
 62
    39
100
AcDbPolyline
 90
       68
 70
     1
 43
0.010417
 10
2.128331
 20
-0.8871889999999998
 10
2.129043
 20
-0.887512
 10
2.136877999999999
 20
-0.8907200000000001
 10
2.144665
 20
-0.8944649999999999
 10
2.152353999999999
 20
-0.8987009999999999
 10
2.159928999999999
 20
-0.9034169999999999
 10
2.167343
 20
-0.908591
 10
2.174609999999999
 20
-0.914189
 10
2.181649999999999
 20
-0.9201689999999999
 10
2.188504
 20
-0.9265200000000001
 10
2.195101999999999
 20
-0.93322
 10
2.201436999999999
 20
-0.9402319999999999
 10
2.207479999999999
 20
-0.9475389999999999
 10
2.213197
 20
-0.9550870000000001
 10
2.218590999999999
 20
-0.962874
 10
2.223613999999999
 20
-0.9708429999999999
 10
2.228239999999999
 20
-0.9789959999999998
 10
2.232475999999999
 20
-0.987283
 10
2.236272
 20
-0.995697
 10
2.239606
 20
-1.004185
 10
2.242475999999999
 20
-1.01272
 10
2.244834999999999
 20
-1.021306999999999
 10
2.246688999999999
 20
-1.02987
 10
2.24798
 20
-1.038397999999999
 10
2.24874
 20
-1.046866
 10
2.248898
 20
-1.055287
 10
2.248472
 20
-1.063555
 10
2.247440999999999
 20
-1.071684999999999
 10
2.245759999999999
 20
-1.079641999999999
 10
2.243444999999999
 20
-1.087448999999999
 10
2.240441
 20
-1.095028
 10
2.236727999999999
 20
-1.102378
 10
2.232299
 20
-1.109512
 10
2.227125999999999
 20
-1.116357999999999
 10
2.235141999999999
 20
-1.122987999999999
 10
2.24089
 20
-1.115369999999999
 10
2.245807
 20
-1.107464999999999
 10
2.249921
 20
-1.099264
 10
2.253255999999999
 20
-1.090826999999999
 10
2.255854
 20
-1.082208999999999
 10
2.257700999999999
 20
-1.073393999999999
 10
2.258849999999999
 20
-1.064453
 10
2.259314999999999
 20
-1.055412999999999
 10
2.259117999999999
 20
-1.046338999999999
 10
2.258318999999999
 20
-1.037177
 10
2.256902
 20
-1.027995999999999
 10
2.254929
 20
-1.018827
 10
2.252406
 20
-1.009712999999999
 10
2.249369999999999
 20
-1.000642
 10
2.245839
 20
-0.991665
 10
2.241839
 20
-0.9828030000000001
 10
2.237397999999999
 20
-0.974075
 10
2.232527999999999
 20
-0.965512
 10
2.227259999999999
 20
-0.9571340000000001
 10
2.221621999999999
 20
-0.948984
 10
2.215622
 20
-0.9410669999999999
 10
2.209295
 20
-0.9334369999999999
 10
2.202668999999999
 20
-0.9260940000000001
 10
2.195748
 20
-0.9190709999999999
 10
2.188571
 20
-0.9123979999999999
 10
2.181122
 20
-0.9060870000000001
 10
2.173484
 20
-0.9002049999999998
 10
2.165629999999999
 20
-0.894748
 10
2.157605999999999
 20
-0.8897479999999999
 10
2.149429
 20
-0.885228
 10
2.141113999999999
 20
-0.8812399999999998
 10
2.132665
 20
-0.877787
 10
2.133377999999999
 20
-0.87811
  0
LWPOLYLINE
  5
546
330
1E
100
AcDbEntity
  8
LAYER_1
  6
CONTINUOUS
 62
    39
100
AcDbPolyline
 90
       66
 70
     1
 43
0.010417
 10
0.7031460000000001
 20
-0.942453
 10
0.7456770000000001
 20
-0.9345159999999999
 10
0.789996
 20
-0.9266219999999998
 10
0.8358979999999998
 20
-0.918768
 10
0.883244
 20
-0.911012
 10
0.9318620000000001
 20
-0.9034129999999999
 10
0.9816179999999999
 20
-0.895969
 10
1.032302999999999
 20
-0.8887360000000001
 10
1.083776
 20
-0.8817520000000001
 10
1.13587
 20
-0.875079
 10
1.188425
 20
-0.8687090000000001
 10
1.241282999999999
 20
-0.8627049999999998
 10
1.294267999999999
 20
-0.857102
 10
1.347223999999999
 20
-0.8519409999999998
 10
1.399991999999999
 20
-0.8472719999999998
 10
1.452397999999999
 20
-0.843102
 10
1.504267999999999
 20
-0.8394879999999998
 10
1.555452999999999
 20
-0.836461
 10
1.605790999999999
 20
-0.8340669999999999
 10
1.655122
 20
-0.8323389999999999
 10
1.703259999999999
 20
-0.8313149999999998
 10
1.750079
 20
-0.8310549999999999
 10
1.795358
 20
-0.831535
 10
1.838972
 20
-0.832854
 10
1.880743999999999
 20
-0.835031
 10
1.920504
 20
-0.8380829999999999
 10
1.958090999999999
 20
-0.842087
 10
1.993338999999999
 20
-0.847024
 10
2.026066999999999
 20
-0.8529610000000001
 10
2.056113999999999
 20
-0.859933
 10
2.083295
 20
-0.867945
 10
2.107416999999999
 20
-0.877035
 10
2.128331
 20
-0.8871889999999998
 10
2.133377999999999
 20
-0.87811
 10
2.111488
 20
-0.867469
 10
2.086546999999999
 20
-0.858094
 10
2.05872
 20
-0.849878
 10
2.028146
 20
-0.842787
 10
1.994968999999999
 20
-0.8367639999999999
 10
1.959349999999999
 20
-0.8317479999999999
 10
1.921440999999999
 20
-0.827744
 10
1.881397999999999
 20
-0.8246540000000001
 10
1.839382
 20
-0.8224759999999999
 10
1.795563
 20
-0.821157
 10
1.750079
 20
-0.8206379999999999
 10
1.703133999999999
 20
-0.8209369999999999
 10
1.654838999999999
 20
-0.8219610000000001
 10
1.605381999999999
 20
-0.8236889999999998
 10
1.554924999999999
 20
-0.826083
 10
1.503613999999999
 20
-0.82911
 10
1.451626
 20
-0.8327239999999999
 10
1.399134
 20
-0.836894
 10
1.346287
 20
-0.8416020000000001
 10
1.293252
 20
-0.8467639999999999
 10
1.240180999999999
 20
-0.8523659999999999
 10
1.187243999999999
 20
-0.85837
 10
1.13461
 20
-0.8647399999999999
 10
1.082429
 20
-0.8714529999999999
 10
1.030877999999999
 20
-0.878437
 10
0.980114
 20
-0.885669
 10
0.930319
 20
-0.8931139999999999
 10
0.8816139999999998
 20
-0.9007519999999999
 10
0.8341889999999999
 20
-0.9085079999999999
 10
0.7882090000000001
 20
-0.9163620000000001
 10
0.7438430000000001
 20
-0.924303
 10
0.701232
 20
-0.93224
  0
LWPOLYLINE
  5
58A
330
1E
100
AcDbEntity
  8
LAYER_1
  6
CONTINUOUS
 62
    39
100
AcDbPolyline
 90
       68
 70
     1
 43
0.010417
 10
-0.402642
 20
-0.988217
 10
-0.403823
 20
-0.998535
 10
-0.358161
 20
-1.001479999999999
 10
-0.31435
 20
-1.004201
 10
-0.2722989999999999
 20
-1.006693
 10
-0.231898
 20
-1.008948999999999
 10
-0.193024
 20
-1.010956999999999
 10
-0.155559
 20
-1.012712999999999
 10
-0.119374
 20
-1.014205
 10
-0.084382
 20
-1.015425
 10
-0.050441
 20
-1.016365999999999
 10
-0.017449
 20
-1.017023999999999
 10
0.014736
 20
-1.017406
 10
0.046161
 20
-1.017465
 10
0.077028
 20
-1.017193
 10
0.107406
 20
-1.016621999999999
 10
0.137417
 20
-1.015724
 10
0.167173
 20
-1.014487999999999
 10
0.196791
 20
-1.012912999999999
 10
0.22639
 20
-1.010984
 10
0.256083
 20
-1.008693
 10
0.285984
 20
-1.00602
 10
0.316217
 20
-1.002987999999999
 10
0.346866
 20
-0.9995709999999998
 10
0.378091
 20
-0.995744
 10
0.409976
 20
-0.991535
 10
0.44265
 20
-0.9869209999999998
 10
0.4762240000000001
 20
-0.981886
 10
0.510827
 20
-0.9764089999999999
 10
0.546563
 20
-0.9705239999999999
 10
0.583535
 20
-0.964193
 10
0.621898
 20
-0.95739
 10
0.66172
 20
-0.950154
 10
0.7031460000000001
 20
-0.942453
 10
0.701232
 20
-0.93224
 10
0.6598460000000001
 20
-0.9399409999999999
 10
0.6200630000000001
 20
-0.9471770000000001
 10
0.581787
 20
-0.9539329999999999
 10
0.544854
 20
-0.9602639999999999
 10
0.509197
 20
-0.96615
 10
0.474681
 20
-0.971587
 10
0.4411850000000001
 20
-0.9766219999999998
 10
0.4085910000000001
 20
-0.9812360000000001
 10
0.376791
 20
-0.9854450000000001
 10
0.345685
 20
-0.9892319999999999
 10
0.315114
 20
-0.99265
 10
0.285008
 20
-0.9956809999999999
 10
0.2552239999999999
 20
-0.998315
 10
0.225657
 20
-1.000605999999999
 10
0.196177
 20
-1.002534999999999
 10
0.166685
 20
-1.00411
 10
0.137047
 20
-1.005345999999999
 10
0.107161
 20
-1.006244
 10
0.076902
 20
-1.006815
 10
0.046161
 20
-1.007047
 10
0.014776
 20
-1.006987999999999
 10
-0.017283
 20
-1.006645999999999
 10
-0.050197
 20
-1.005987999999999
 10
-0.084059
 20
-1.005047
 10
-0.119004
 20
-1.003827
 10
-0.15511
 20
-1.002334999999999
 10
-0.192535
 20
-1.000579
 10
-0.23137
 20
-0.9985709999999999
 10
-0.271732
 20
-0.9963149999999998
 10
-0.313736
 20
-0.9938229999999999
 10
-0.357508
 20
-0.991102
 10
-0.4031690000000001
 20
-0.9881569999999999
 10
-0.40435
 20
-0.9984759999999999
  0
LWPOLYLINE
  5
5D0
330
1E
100
AcDbEntity
  8
LAYER_1
  6
CONTINUOUS
 62
    39
100
AcDbPolyline
 90
       66
 70
     1
 43
0.010417
 10
0.068256
 20
-1.129054999999999
 10
0.055606
 20
-1.12487
 10
0.042937
 20
-1.120570999999999
 10
0.030276
 20
-1.116196999999999
 10
0.017567
 20
-1.111728
 10
0.004831
 20
-1.107180999999999
 10
-0.007984
 20
-1.102597999999999
 10
-0.020839
 20
-1.097933
 10
-0.033791
 20
-1.093223999999999
 10
-0.046835
 20
-1.088471999999999
 10
-0.05998
 20
-1.083696999999999
 10
-0.07326
 20
-1.078897999999999
 10
-0.086654
 20
-1.074059
 10
-0.100209
 20
-1.069244
 10
-0.113913
 20
-1.064432999999999
 10
-0.127791
 20
-1.059617999999999
 10
-0.141866
 20
-1.054842999999999
 10
-0.156122
 20
-1.050078999999999
 10
-0.170602
 20
-1.04537
 10
-0.185303
 20
-1.040693
 10
-0.20024
 20
-1.036091
 10
-0.215421
 20
-1.031535
 10
-0.230862
 20
-1.027050999999999
 10
-0.246598
 20
-1.022669
 10
-0.262598
 20
-1.018353999999999
 10
-0.278921
 20
-1.014142
 10
-0.295555
 20
-1.010059
 10
-0.312492
 20
-1.006070999999999
 10
-0.329795
 20
-1.002208999999999
 10
-0.347445
 20
-0.9985000000000001
 10
-0.365461
 20
-0.994913
 10
-0.383854
 20
-0.9914959999999998
 10
-0.402642
 20
-0.988217
 10
-0.40435
 20
-0.9984759999999999
 10
-0.385689
 20
-1.001708999999999
 10
-0.367413
 20
-1.005125999999999
 10
-0.349524
 20
-1.008672999999999
 10
-0.331992
 20
-1.012381999999999
 10
-0.314815
 20
-1.016205
 10
-0.297957
 20
-1.020154
 10
-0.281441
 20
-1.024236
 10
-0.265244
 20
-1.028408999999999
 10
-0.249323
 20
-1.032677
 10
-0.233713
 20
-1.037058999999999
 10
-0.21835
 20
-1.041503999999999
 10
-0.203248
 20
-1.04602
 10
-0.188398
 20
-1.050621999999999
 10
-0.173776
 20
-1.05526
 10
-0.159374
 20
-1.059969
 10
-0.145165
 20
-1.064693
 10
-0.131169
 20
-1.069469
 10
-0.117331
 20
-1.074243999999999
 10
-0.103665
 20
-1.079054999999999
 10
-0.090157
 20
-1.08387
 10
-0.076764
 20
-1.088661
 10
-0.063524
 20
-1.093461
 10
-0.050378
 20
-1.098235999999999
 10
-0.037335
 20
-1.102987999999999
 10
-0.024382
 20
-1.107696999999999
 10
-0.011488
 20
-1.112362
 10
0.001327
 20
-1.116991999999999
 10
0.01411
 20
-1.121538999999999
 10
0.026858
 20
-1.126007999999999
 10
0.039598
 20
-1.130420999999999
 10
0.052307
 20
-1.13472
 10
0.065043
 20
-1.138945
  0
LWPOLYLINE
  5
614
330
1E
100
AcDbEntity
  8
LAYER_1
  6
CONTINUOUS
 62
    39
100
AcDbPolyline
 90
       62
 70
     1
 43
0.010417
 10
0.6424880000000001
 20
-1.163972
 10
0.60278
 20
-1.162339
 10
0.5651500000000001
 20
-1.160845999999999
 10
0.5295670000000001
 20
-1.159483999999999
 10
0.495945
 20
-1.158239999999999
 10
0.464185
 20
-1.15711
 10
0.4342680000000001
 20
-1.156079
 10
0.406102
 20
-1.155134
 10
0.379614
 20
-1.154268
 10
0.331402
 20
-1.152719999999999
 10
0.289071
 20
-1.151358
 10
0.269941
 20
-1.150719999999999
 10
0.252091
 20
-1.150090999999999
 10
0.235413
 20
-1.149469
 10
0.219878
 20
-1.148835
 10
0.205413
 20
-1.148180999999999
 10
0.191913
 20
-1.147499999999999
 10
0.179354
 20
-1.146776
 10
0.16765
 20
-1.146004
 10
0.156705
 20
-1.145164999999999
 10
0.146504
 20
-1.144279999999999
 10
0.136941
 20
-1.143287
 10
0.127937
 20
-1.14222
 10
0.119457
 20
-1.141028
 10
0.111421
 20
-1.139739999999999
 10
0.10374
 20
-1.138330999999999
 10
0.096346
 20
-1.136798999999999
 10
0.089173
 20
-1.135102
 10
0.082165
 20
-1.133267999999999
 10
0.075217
 20
-1.13124
 10
0.068256
 20
-1.129054999999999
 10
0.065043
 20
-1.138945
 10
0.072209
 20
-1.141208999999999
 10
0.079402
 20
-1.143275999999999
 10
0.086693
 20
-1.145197
 10
0.09411
 20
-1.146932999999999
 10
0.101748
 20
-1.148543
 10
0.109673
 20
-1.149999999999999
 10
0.117953
 20
-1.151326999999999
 10
0.126638
 20
-1.152519999999999
 10
0.135799
 20
-1.153626
 10
0.145528
 20
-1.154617999999999
 10
0.155894
 20
-1.155542999999999
 10
0.166917
 20
-1.156382
 10
0.17874
 20
-1.157154
 10
0.191386
 20
-1.157877999999999
 10
0.204925
 20
-1.158559
 10
0.219469
 20
-1.159212999999999
 10
0.235043
 20
-1.159845999999999
 10
0.25172
 20
-1.160468999999999
 10
0.269618
 20
-1.161097999999999
 10
0.288748
 20
-1.161736
 10
0.331079
 20
-1.163097999999999
 10
0.379291
 20
-1.164645999999999
 10
0.4057800000000001
 20
-1.165512
 10
0.433945
 20
-1.166457
 10
0.463862
 20
-1.167487999999999
 10
0.495575
 20
-1.168617999999999
 10
0.529197
 20
-1.169862
 10
0.5647800000000001
 20
-1.171224
 10
0.60237
 20
-1.172717
 10
0.642079
 20
-1.17435
  0
LWPOLYLINE
  5
654
330
1E
100
AcDbEntity
  8
LAYER_1
  6
CONTINUOUS
 62
    39
100
AcDbPolyline
 90
       68
 70
     1
 43
0.010417
 10
2.227125999999999
 20
-1.116357999999999
 10
2.227247999999999
 20
-1.116231999999999
 10
2.22126
 20
-1.120094
 10
2.208469
 20
-1.124673
 10
2.189783
 20
-1.129180999999999
 10
2.165700999999999
 20
-1.133495999999999
 10
2.136601999999999
 20
-1.137587
 10
2.102878
 20
-1.141429
 10
2.064823
 20
-1.145028
 10
2.022799
 20
-1.148406
 10
1.977083
 20
-1.151542999999999
 10
1.928027999999999
 20
-1.154449
 10
1.875941
 20
-1.157118
 10
1.82115
 20
-1.159559
 10
1.763949
 20
-1.161772
 10
1.704692999999999
 20
-1.163756
 10
1.64365
 20
-1.165524
 10
1.581164999999999
 20
-1.167067
 10
1.517551
 20
-1.16839
 10
1.453122
 20
-1.169504
 10
1.388176999999999
 20
-1.170401999999999
 10
1.323070999999999
 20
-1.171090999999999
 10
1.258094
 20
-1.171554999999999
 10
1.193570999999999
 20
-1.171834999999999
 10
1.129787
 20
-1.171909
 10
1.067091
 20
-1.171787
 10
1.005806999999999
 20
-1.171469
 10
0.946232
 20
-1.170976
 10
0.8886930000000001
 20
-1.170271999999999
 10
0.8334959999999998
 20
-1.169378
 10
0.7809530000000001
 20
-1.168298999999999
 10
0.7314090000000001
 20
-1.167035
 10
0.6851340000000001
 20
-1.165594
 10
0.6424880000000001
 20
-1.163972
 10
0.642079
 20
-1.17435
 10
0.684811
 20
-1.175972
 10
0.7311260000000001
 20
-1.177412999999999
 10
0.780748
 20
-1.178676999999999
 10
0.8333309999999999
 20
-1.179756
 10
0.8885669999999999
 20
-1.180649999999999
 10
0.9461540000000001
 20
-1.181354
 10
1.005767999999999
 20
-1.181885999999999
 10
1.067091
 20
-1.182204999999999
 10
1.129787
 20
-1.182327
 10
1.193570999999999
 20
-1.182252
 10
1.258134
 20
-1.181972
 10
1.32315
 20
-1.181469
 10
1.388303
 20
-1.180779999999999
 10
1.453247999999999
 20
-1.179881999999999
 10
1.517717
 20
-1.178768
 10
1.58137
 20
-1.177445
 10
1.643893999999999
 20
-1.175902
 10
1.704975999999999
 20
-1.174134
 10
1.764318999999999
 20
-1.17215
 10
1.821558999999999
 20
-1.169937
 10
1.876429
 20
-1.167495999999999
 10
1.928594
 20
-1.164827
 10
1.977736
 20
-1.161920999999999
 10
2.023531
 20
-1.158782999999999
 10
2.06572
 20
-1.155405999999999
 10
2.103933
 20
-1.151768
 10
2.137901999999999
 20
-1.147885999999999
 10
2.167291
 20
-1.143755999999999
 10
2.191861999999999
 20
-1.139353999999999
 10
2.211358
 20
-1.134641999999999
 10
2.225654
 20
-1.129495999999999
 10
2.23502
 20
-1.123113999999999
 10
2.235141999999999
 20
-1.122987999999999
  0
LWPOLYLINE
  5
69A
330
1E
100
AcDbEntity
  8
LAYER_1
  6
CONTINUOUS
 62
    39
100
AcDbPolyline
 90
       68
 70
     1
 43
0.010417
 10
2.154660999999999
 20
-1.152212999999999
 10
2.155066999999999
 20
-1.152172999999999
 10
2.176638
 20
-1.147912999999999
 10
2.195898
 20
-1.142244
 10
2.212673
 20
-1.135295
 10
2.226763999999999
 20
-1.127126
 10
2.237933
 20
-1.117866
 10
2.245937
 20
-1.107456999999999
 10
2.250275999999999
 20
-1.095984
 10
2.250361999999999
 20
-1.083878
 10
2.246004
 20
-1.071835
 10
2.237315
 20
-1.060283
 10
2.224353999999999
 20
-1.049295
 10
2.206976
 20
-1.038881999999999
 10
2.184984
 20
-1.029079
 10
2.158097999999999
 20
-1.019987999999999
 10
2.126079
 20
-1.011747999999999
 10
2.088713
 20
-1.004495999999999
 10
2.045771999999999
 20
-0.998394
 10
1.996979999999999
 20
-0.9936099999999999
 10
1.942184999999999
 20
-0.9903069999999999
 10
1.881097999999999
 20
-0.9886299999999998
 10
1.813539
 20
-0.988752
 10
1.73924
 20
-0.9908309999999998
 10
1.658015999999999
 20
-0.995043
 10
1.569645999999999
 20
-1.001546999999999
 10
1.473897999999999
 20
-1.010530999999999
 10
1.370562999999999
 20
-1.022126
 10
1.259409
 20
-1.036530999999999
 10
1.140217
 20
-1.053878
 10
1.012763999999999
 20
-1.07437
 10
0.8768540000000001
 20
-1.098161
 10
0.732252
 20
-1.125385999999999
 10
0.578728
 20
-1.15626
 10
0.580807
 20
-1.166433
 10
0.7342050000000001
 20
-1.135597999999999
 10
0.8786889999999999
 20
-1.108373999999999
 10
1.014472
 20
-1.084629999999999
 10
1.14176
 20
-1.064177
 10
1.260795
 20
-1.046830999999999
 10
1.371782999999999
 20
-1.032464999999999
 10
1.474953
 20
-1.02087
 10
1.570504
 20
-1.011924999999999
 10
1.658668999999999
 20
-1.005420999999999
 10
1.739649999999999
 20
-1.001209
 10
1.813665
 20
-0.9991299999999998
 10
1.880972
 20
-0.999008
 10
1.941736
 20
-1.000685
 10
1.996209
 20
-1.003987999999999
 10
2.044550999999999
 20
-1.008731999999999
 10
2.087042999999999
 20
-1.014755999999999
 10
2.123842999999999
 20
-1.021881999999999
 10
2.155168999999999
 20
-1.029957
 10
2.181236
 20
-1.038764
 10
2.202252
 20
-1.048118
 10
2.21837
 20
-1.057798999999999
 10
2.229827
 20
-1.067487999999999
 10
2.236924999999999
 20
-1.076881999999999
 10
2.240149999999999
 20
-1.085712999999999
 10
2.240063
 20
-1.094071
 10
2.236906
 20
-1.102330999999999
 10
2.230523999999999
 20
-1.110583
 10
2.220866
 20
-1.118582999999999
 10
2.208114
 20
-1.125933
 10
2.192479999999999
 20
-1.132433
 10
2.174196999999999
 20
-1.137819
 10
2.153523999999999
 20
-1.141874
 10
2.153929
 20
-1.141834999999999
  0
LWPOLYLINE
  5
6E0
330
1E
100
AcDbEntity
  8
LAYER_1
  6
CONTINUOUS
 62
    39
100
AcDbPolyline
 90
       68
 70
     1
 43
0.010417
 10
0.578728
 20
-1.15626
 10
0.579646
 20
-1.166535
 10
0.5826140000000001
 20
-1.166629999999999
 10
0.5913540000000001
 20
-1.166819
 10
0.6055470000000001
 20
-1.167146
 10
0.624941
 20
-1.167575
 10
0.6492520000000001
 20
-1.168090999999999
 10
0.678228
 20
-1.168672999999999
 10
0.7115550000000001
 20
-1.169306999999999
 10
0.748969
 20
-1.169976
 10
0.7901970000000001
 20
-1.170660999999999
 10
0.83498
 20
-1.171345999999999
 10
0.883008
 20
-1.172012
 10
0.9340389999999999
 20
-1.172649999999999
 10
0.987752
 20
-1.173232
 10
1.043894
 20
-1.173767999999999
 10
1.102208999999999
 20
-1.174201
 10
1.162382
 20
-1.174530999999999
 10
1.224169
 20
-1.174744
 10
1.287263999999999
 20
-1.174822999999999
 10
1.351397999999999
 20
-1.174747999999999
 10
1.416323
 20
-1.174503999999999
 10
1.48174
 20
-1.174074999999999
 10
1.547349999999999
 20
-1.173420999999999
 10
1.612920999999999
 20
-1.172570999999999
 10
1.67815
 20
-1.171479999999999
 10
1.742759999999999
 20
-1.170137999999999
 10
1.806499999999999
 20
-1.168523999999999
 10
1.869047
 20
-1.166625999999999
 10
1.930172999999999
 20
-1.164417
 10
1.989550999999999
 20
-1.161889999999999
 10
2.046952999999999
 20
-1.159028
 10
2.102093999999999
 20
-1.155807
 10
2.154660999999999
 20
-1.152212999999999
 10
2.153929
 20
-1.141834999999999
 10
2.101440999999999
 20
-1.145429
 10
2.046425
 20
-1.148649999999999
 10
1.989102
 20
-1.151512
 10
1.929764
 20
-1.154039
 10
1.868724
 20
-1.156247999999999
 10
1.806216999999999
 20
-1.158145999999999
 10
1.742554999999999
 20
-1.15976
 10
1.677983999999999
 20
-1.161102
 10
1.612795
 20
-1.162193
 10
1.547271999999999
 20
-1.163043
 10
1.481661
 20
-1.163656999999999
 10
1.416282999999999
 20
-1.164087
 10
1.351397999999999
 20
-1.164331
 10
1.287263999999999
 20
-1.164406
 10
1.224169
 20
-1.164327
 10
1.162420999999999
 20
-1.164113999999999
 10
1.102247999999999
 20
-1.163783
 10
1.043971999999999
 20
-1.16335
 10
0.9878309999999999
 20
-1.162854
 10
0.9341179999999999
 20
-1.162271999999999
 10
0.8831339999999999
 20
-1.161634
 10
0.8351059999999998
 20
-1.160969
 10
0.790362
 20
-1.160282999999999
 10
0.749134
 20
-1.159597999999999
 10
0.7117200000000001
 20
-1.158929
 10
0.678394
 20
-1.158295
 10
0.649457
 20
-1.157712999999999
 10
0.625146
 20
-1.157197
 10
0.6057520000000001
 20
-1.156768
 10
0.5915590000000001
 20
-1.156441
 10
0.582858
 20
-1.156212999999999
 10
0.57989
 20
-1.156156999999999
 10
0.580807
 20
-1.166433
  0
LWPOLYLINE
  5
726
330
1E
100
AcDbEntity
  8
LAYER_1
  6
CONTINUOUS
 62
    39
100
AcDbPolyline
 90
       66
 70
     1
 43
0.010417
 10
2.20765
 20
-0.418445
 10
2.199034999999999
 20
-0.412882
 10
2.187197
 20
-0.412161
 10
2.168531
 20
-0.4117050000000001
 10
2.143283
 20
-0.411461
 10
2.111798999999999
 20
-0.411453
 10
2.074460999999999
 20
-0.4116540000000001
 10
2.031677
 20
-0.4120430000000001
 10
1.983849999999999
 20
-0.4126260000000001
 10
1.931413
 20
-0.413354
 10
1.874727999999999
 20
-0.414228
 10
1.81424
 20
-0.41524
 10
1.750338999999999
 20
-0.416366
 10
1.683424999999999
 20
-0.4176020000000001
 10
1.613909
 20
-0.418929
 10
1.542181
 20
-0.4203350000000001
 10
1.468677
 20
-0.421803
 10
1.393787
 20
-0.423323
 10
1.317920999999999
 20
-0.424874
 10
1.241479999999999
 20
-0.426449
 10
1.164873999999999
 20
-0.428031
 10
1.088504
 20
-0.4296060000000001
 10
1.012782999999999
 20
-0.431161
 10
0.9381139999999998
 20
-0.432681
 10
0.864902
 20
-0.4341540000000001
 10
0.7935710000000001
 20
-0.4355630000000001
 10
0.7244920000000001
 20
-0.436894
 10
0.658091
 20
-0.438134
 10
0.5947680000000001
 20
-0.4392680000000001
 10
0.5349370000000001
 20
-0.440283
 10
0.4790160000000001
 20
-0.441169
 10
0.427378
 20
-0.441902
 10
0.380472
 20
-0.442476
 10
0.380551
 20
-0.452854
 10
0.427504
 20
-0.4522800000000001
 10
0.4791420000000001
 20
-0.4515470000000001
 10
0.5351020000000001
 20
-0.4506610000000001
 10
0.5949330000000001
 20
-0.449646
 10
0.6582560000000001
 20
-0.448512
 10
0.7246570000000001
 20
-0.447272
 10
0.793736
 20
-0.445941
 10
0.8651059999999999
 20
-0.4445310000000001
 10
0.938319
 20
-0.4430590000000001
 10
1.012987999999999
 20
-0.4415390000000001
 10
1.088708999999999
 20
-0.4399840000000001
 10
1.165079
 20
-0.438409
 10
1.241684999999999
 20
-0.436827
 10
1.318126
 20
-0.4352520000000001
 10
1.393991999999999
 20
-0.4337010000000001
 10
1.468881999999999
 20
-0.4321810000000001
 10
1.542386
 20
-0.430713
 10
1.614074999999999
 20
-0.4293070000000001
 10
1.683591
 20
-0.42798
 10
1.750504
 20
-0.426744
 10
1.814406
 20
-0.4256180000000001
 10
1.874893999999999
 20
-0.424606
 10
1.931538999999999
 20
-0.4237320000000001
 10
1.983975999999999
 20
-0.423004
 10
2.031756
 20
-0.4224610000000001
 10
2.0745
 20
-0.4220710000000001
 10
2.111798999999999
 20
-0.4218700000000001
 10
2.143243999999999
 20
-0.421878
 10
2.168406
 20
-0.422083
 10
2.186827
 20
-0.4225390000000001
 10
2.197933
 20
-0.42322
 10
2.197311
 20
-0.4195870000000001
  0
LWPOLYLINE
  5
76A
330
1E
100
AcDbEntity
  8
LAYER_1
  6
CONTINUOUS
 62
    39
100
AcDbPolyline
 90
        5
 70
     1
 43
0.010417
 10
4.373457
 20
-0.6106020000000001
 10
4.373457
 20
-0.610441
 10
4.370854
 20
-0.165039
 10
4.360476
 20
-0.165079
 10
4.363078999999999
 20
-0.61048
  0
LWPOLYLINE
  5
771
330
1E
100
AcDbEntity
  8
LAYER_1
  6
CONTINUOUS
 62
    39
100
AcDbPolyline
 90
       68
 70
     1
 43
0.010417
 10
4.359315
 20
-0.7828540000000001
 10
4.361472
 20
-0.78015
 10
4.362823
 20
-0.775929
 10
4.364050999999999
 20
-0.771543
 10
4.365180999999999
 20
-0.766965
 10
4.366197
 20
-0.7622170000000001
 10
4.367145999999999
 20
-0.757323
 10
4.367987999999999
 20
-0.752295
 10
4.368727999999999
 20
-0.7471180000000001
 10
4.369408999999999
 20
-0.7418350000000001
 10
4.37
 20
-0.7364290000000001
 10
4.370538999999999
 20
-0.7309210000000001
 10
4.371
 20
-0.7253390000000001
 10
4.371398
 20
-0.7196810000000001
 10
4.371739999999999
 20
-0.713969
 10
4.372030999999999
 20
-0.7081890000000001
 10
4.372279999999999
 20
-0.70239
 10
4.37248
 20
-0.6965750000000001
 10
4.372665
 20
-0.6907320000000001
 10
4.372794999999999
 20
-0.684906
 10
4.372898
 20
-0.679067
 10
4.372976
 20
-0.673272
 10
4.373031
 20
-0.667531
 10
4.373066999999999
 20
-0.6618270000000001
 10
4.373094
 20
-0.6561810000000001
 10
4.373109999999999
 20
-0.6506300000000001
 10
4.373126
 20
-0.645165
 10
4.373141999999999
 20
-0.6398030000000001
 10
4.373156999999999
 20
-0.634575
 10
4.373188999999999
 20
-0.629449
 10
4.373228
 20
-0.624484
 10
4.373287
 20
-0.6196770000000001
 10
4.373369999999999
 20
-0.6150510000000001
 10
4.373457
 20
-0.6106020000000001
 10
4.363078999999999
 20
-0.610319
 10
4.362953
 20
-0.614846
 10
4.36287
 20
-0.6195510000000001
 10
4.362810999999999
 20
-0.6244060000000001
 10
4.362772
 20
-0.629409
 10
4.36274
 20
-0.6345350000000001
 10
4.362724
 20
-0.6398030000000001
 10
4.362708999999999
 20
-0.645165
 10
4.362693
 20
-0.6506300000000001
 10
4.362676999999999
 20
-0.6561810000000001
 10
4.36265
 20
-0.661787
 10
4.362613999999999
 20
-0.667453
 10
4.362559
 20
-0.6731930000000001
 10
4.36248
 20
-0.6789410000000001
 10
4.362377999999999
 20
-0.684701
 10
4.362248
 20
-0.6904880000000001
 10
4.362101999999999
 20
-0.6962520000000002
 10
4.361901999999999
 20
-0.70202
 10
4.361653999999999
 20
-0.7077399999999999
 10
4.361362
 20
-0.7134020000000002
 10
4.361019999999999
 20
-0.719028
 10
4.360622
 20
-0.724567
 10
4.360160999999999
 20
-0.7300240000000001
 10
4.359661
 20
-0.7353740000000001
 10
4.359071
 20
-0.740614
 10
4.358429
 20
-0.745732
 10
4.357688999999999
 20
-0.7507050000000001
 10
4.356886
 20
-0.7555350000000001
 10
4.356023999999999
 20
-0.760185
 10
4.355046999999999
 20
-0.7646420000000001
 10
4.353995999999999
 20
-0.768898
 10
4.352853999999999
 20
-0.772961
 10
4.351621999999999
 20
-0.7767720000000001
 10
4.35378
 20
-0.7740670000000001
  0
LWPOLYLINE
  5
7B7
330
1E
100
AcDbEntity
  8
LAYER_1
  6
CONTINUOUS
 62
    39
100
AcDbPolyline
 90
       68
 70
     1
 43
0.010417
 10
3.596999999999999
 20
-1.101338999999999
 10
3.597223999999999
 20
-1.10128
 10
3.625083
 20
-1.094208999999999
 10
3.652598
 20
-1.086971999999999
 10
3.679794999999999
 20
-1.079531
 10
3.706688999999999
 20
-1.071929
 10
3.733294999999999
 20
-1.064126
 10
3.759587
 20
-1.056133999999999
 10
3.785583
 20
-1.047961
 10
3.811315
 20
-1.039617999999999
 10
3.836751999999999
 20
-1.031074999999999
 10
3.861937
 20
-1.022345999999999
 10
3.886834999999999
 20
-1.013425
 10
3.911469
 20
-1.004326999999999
 10
3.935873999999999
 20
-0.9950389999999998
 10
3.960012
 20
-0.9855669999999999
 10
3.983921
 20
-0.9759059999999999
 10
4.007587
 20
-0.9660589999999999
 10
4.031012
 20
-0.956024
 10
4.054244
 20
-0.945803
 10
4.077232
 20
-0.9353940000000001
 10
4.100030999999999
 20
-0.9247989999999999
 10
4.122609999999999
 20
-0.9140159999999999
 10
4.144987999999999
 20
-0.903043
 10
4.167196999999999
 20
-0.8918779999999999
 10
4.189197
 20
-0.880512
 10
4.211019999999999
 20
-0.8689719999999999
 10
4.232688999999999
 20
-0.857244
 10
4.254169
 20
-0.845331
 10
4.275491999999999
 20
-0.833201
 10
4.296661
 20
-0.8209059999999999
 10
4.317676999999999
 20
-0.808421
 10
4.338550999999999
 20
-0.795744
 10
4.359315
 20
-0.7828540000000001
 10
4.35378
 20
-0.7740670000000001
 10
4.333141999999999
 20
-0.78687
 10
4.312345999999999
 20
-0.799508
 10
4.291408999999999
 20
-0.8119529999999999
 10
4.270326999999999
 20
-0.8242089999999999
 10
4.249083
 20
-0.8362519999999999
 10
4.227680999999999
 20
-0.848126
 10
4.206138
 20
-0.859815
 10
4.184394
 20
-0.8713149999999998
 10
4.162472
 20
-0.8826019999999999
 10
4.14039
 20
-0.89372
 10
4.118091
 20
-0.904654
 10
4.095598
 20
-0.9153979999999998
 10
4.072916999999999
 20
-0.9259529999999999
 10
4.050008
 20
-0.9363229999999999
 10
4.026901999999999
 20
-0.9465040000000001
 10
4.003555
 20
-0.956492
 10
3.979976
 20
-0.966299
 10
3.956184999999999
 20
-0.9759209999999999
 10
3.932126
 20
-0.985354
 10
3.907845999999999
 20
-0.994602
 10
3.883291
 20
-1.003661
 10
3.85848
 20
-1.012534999999999
 10
3.833412999999999
 20
-1.021223999999999
 10
3.808062999999999
 20
-1.029727999999999
 10
3.782448999999999
 20
-1.038070999999999
 10
3.756530999999999
 20
-1.046204999999999
 10
3.730326999999999
 20
-1.054157
 10
3.703838999999999
 20
-1.061920999999999
 10
3.677030999999999
 20
-1.069523999999999
 10
3.649912999999999
 20
-1.076916999999999
 10
3.622476
 20
-1.084154
 10
3.594744
 20
-1.091185
 10
3.594969
 20
-1.091126
  0
LWPOLYLINE
  5
7FD
330
1E
100
AcDbEntity
  8
LAYER_1
  6
CONTINUOUS
 62
    39
100
AcDbPolyline
 90
       71
 70
     1
 43
0.010417
 10
3.021672999999999
 20
-1.178137999999999
 10
3.027086999999999
 20
-1.183469
 10
3.035811
 20
-1.183035
 10
3.045310999999999
 20
-1.182476
 10
3.055527999999999
 20
-1.181783
 10
3.066464999999999
 20
-1.180957
 10
3.078091
 20
-1.179999999999999
 10
3.090416999999999
 20
-1.178889999999999
 10
3.103393999999999
 20
-1.177664999999999
 10
3.117046999999999
 20
-1.176303
 10
3.131323
 20
-1.174811
 10
3.146212999999999
 20
-1.173177
 10
3.161704999999999
 20
-1.171408999999999
 10
3.177786999999999
 20
-1.169504
 10
3.194436999999999
 20
-1.167461
 10
3.211641999999999
 20
-1.165259999999999
 10
3.229385999999999
 20
-1.162937
 10
3.24765
 20
-1.160471999999999
 10
3.266416999999999
 20
-1.15787
 10
3.285669
 20
-1.155121999999999
 10
3.305394
 20
-1.152236
 10
3.325571
 20
-1.149200999999999
 10
3.346184999999999
 20
-1.146007999999999
 10
3.367219999999999
 20
-1.142684999999999
 10
3.388656999999999
 20
-1.13922
 10
3.41048
 20
-1.135605999999999
 10
3.432676999999999
 20
-1.13185
 10
3.455223999999999
 20
-1.127941
 10
3.47811
 20
-1.123862
 10
3.501314999999999
 20
-1.119656999999999
 10
3.524823
 20
-1.115307
 10
3.548617999999999
 20
-1.110802999999999
 10
3.572680999999999
 20
-1.106145999999999
 10
3.596999999999999
 20
-1.101338999999999
 10
3.594969
 20
-1.091126
 10
3.570688999999999
 20
-1.095933
 10
3.546664999999999
 20
-1.100590999999999
 10
3.522908999999999
 20
-1.105094
 10
3.499441
 20
-1.109445
 10
3.476276
 20
-1.11365
 10
3.453437
 20
-1.117680999999999
 10
3.430928999999999
 20
-1.121591
 10
3.408771999999999
 20
-1.125345999999999
 10
3.386987999999999
 20
-1.128961
 10
3.365591
 20
-1.132425
 10
3.344594
 20
-1.135747999999999
 10
3.324027999999999
 20
-1.138902
 10
3.303889999999999
 20
-1.141936999999999
 10
3.284205
 20
-1.144822999999999
 10
3.264991999999999
 20
-1.147570999999999
 10
3.246264
 20
-1.150172999999999
 10
3.228038999999999
 20
-1.152637999999999
 10
3.210342999999999
 20
-1.154961
 10
3.193176999999999
 20
-1.157121999999999
 10
3.176566999999999
 20
-1.159165
 10
3.160524
 20
-1.161070999999999
 10
3.145070999999999
 20
-1.162838999999999
 10
3.13022
 20
-1.164471999999999
 10
3.115991999999999
 20
-1.165964999999999
 10
3.102416999999999
 20
-1.167327
 10
3.08948
 20
-1.168551
 10
3.077231999999999
 20
-1.169621999999999
 10
3.065653999999999
 20
-1.170579
 10
3.054794999999999
 20
-1.171405999999999
 10
3.044656999999999
 20
-1.172097999999999
 10
3.035283
 20
-1.172657
 10
3.026638
 20
-1.173090999999999
 10
3.032051
 20
-1.178420999999999
 10
3.021672999999999
 20
-1.178137999999999
 10
3.021530999999999
 20
-1.183693
 10
3.027086999999999
 20
-1.183469
  0
LWPOLYLINE
  5
846
330
1E
100
AcDbEntity
  8
LAYER_1
  6
CONTINUOUS
 62
    39
100
AcDbPolyline
 90
       60
 70
     1
 43
0.010417
 10
3.023016
 20
-1.072074999999999
 10
3.022975999999999
 20
-1.072543
 10
3.022842999999999
 20
-1.075172999999999
 10
3.02274
 20
-1.077835
 10
3.022654
 20
-1.080575
 10
3.022578999999999
 20
-1.083342999999999
 10
3.022515999999999
 20
-1.086157
 10
3.022464999999999
 20
-1.089024
 10
3.022421
 20
-1.091941
 10
3.022386
 20
-1.094908999999999
 10
3.022358
 20
-1.097920999999999
 10
3.022339
 20
-1.100961
 10
3.022327
 20
-1.104043
 10
3.022315
 20
-1.107196999999999
 10
3.022307
 20
-1.113590999999999
 10
3.022307
 20
-1.120160999999999
 10
3.022302999999999
 20
-1.126897999999999
 10
3.022295
 20
-1.133799
 10
3.022283
 20
-1.137307
 10
3.022272
 20
-1.140835
 10
3.022251999999999
 20
-1.144417
 10
3.022224
 20
-1.14802
 10
3.022189
 20
-1.151677
 10
3.022145999999999
 20
-1.15535
 10
3.022094
 20
-1.159079
 10
3.022031
 20
-1.162819
 10
3.021957
 20
-1.166594
 10
3.02187
 20
-1.170406
 10
3.021768
 20
-1.174244
 10
3.021672999999999
 20
-1.178137999999999
 10
3.032051
 20
-1.178420999999999
 10
3.032184999999999
 20
-1.174528
 10
3.032286999999999
 20
-1.170649999999999
 10
3.032374
 20
-1.166798999999999
 10
3.032449
 20
-1.162984
 10
3.032512
 20
-1.159204999999999
 10
3.032563
 20
-1.155475999999999
 10
3.032605999999999
 20
-1.151756
 10
3.032641999999999
 20
-1.148098
 10
3.032668999999999
 20
-1.144457
 10
3.032688999999999
 20
-1.140873999999999
 10
3.032700999999999
 20
-1.137307
 10
3.032713
 20
-1.133799
 10
3.032719999999999
 20
-1.126897999999999
 10
3.032723999999999
 20
-1.120160999999999
 10
3.032723999999999
 20
-1.113590999999999
 10
3.032731999999999
 20
-1.107196999999999
 10
3.032743999999999
 20
-1.104082999999999
 10
3.032756
 20
-1.100999999999999
 10
3.032775999999999
 20
-1.097960999999999
 10
3.032802999999999
 20
-1.094987999999999
 10
3.032839
 20
-1.092066999999999
 10
3.032881999999999
 20
-1.089188999999999
 10
3.032933
 20
-1.086362
 10
3.032995999999999
 20
-1.083587
 10
3.033071
 20
-1.080858
 10
3.033157
 20
-1.078204999999999
 10
3.033259999999999
 20
-1.075582999999999
 10
3.033354
 20
-1.073030999999999
 10
3.033314999999999
 20
-1.073499999999999
  0
LWPOLYLINE
  5
884
330
1E
100
AcDbEntity
  8
LAYER_1
  6
CONTINUOUS
 62
    39
100
AcDbPolyline
 90
       71
 70
     1
 43
0.010417
 10
2.930405999999999
 20
-0.07522
 10
2.925665
 20
-0.082362
 10
2.935656999999999
 20
-0.107795
 10
2.945193
 20
-0.134012
 10
2.954283
 20
-0.160984
 10
2.962924999999999
 20
-0.188634
 10
2.971138
 20
-0.216957
 10
2.978894
 20
-0.24589
 10
2.986181
 20
-0.275406
 10
2.993043
 20
-0.305429
 10
2.999471999999999
 20
-0.335949
 10
3.005428999999999
 20
-0.366913
 10
3.010936999999999
 20
-0.398264
 10
3.015995999999999
 20
-0.4299720000000001
 10
3.020621999999999
 20
-0.4619920000000001
 10
3.024779999999999
 20
-0.4942720000000001
 10
3.028507999999999
 20
-0.5267990000000001
 10
3.031787
 20
-0.559484
 10
3.034593999999999
 20
-0.5923270000000001
 10
3.036972
 20
-0.625248
 10
3.038898
 20
-0.658236
 10
3.040374
 20
-0.691217
 10
3.041402
 20
-0.7241770000000001
 10
3.041957
 20
-0.757043
 10
3.042083
 20
-0.7898310000000001
 10
3.041779999999999
 20
-0.8224129999999998
 10
3.041004
 20
-0.8548110000000001
 10
3.039779999999999
 20
-0.8869369999999999
 10
3.038105999999999
 20
-0.9187719999999998
 10
3.035979999999999
 20
-0.950276
 10
3.033424999999999
 20
-0.981398
 10
3.030397999999999
 20
-1.012102
 10
3.026920999999999
 20
-1.042343
 10
3.023016
 20
-1.072074999999999
 10
3.033314999999999
 20
-1.073499999999999
 10
3.037259999999999
 20
-1.043602
 10
3.040735999999999
 20
-1.013204999999999
 10
3.043763999999999
 20
-0.9823350000000001
 10
3.046358
 20
-0.9510469999999999
 10
3.048484
 20
-0.919386
 10
3.050157
 20
-0.887386
 10
3.051381999999999
 20
-0.855094
 10
3.052156999999999
 20
-0.8225789999999999
 10
3.0525
 20
-0.7898310000000001
 10
3.052374
 20
-0.7569650000000001
 10
3.051779999999999
 20
-0.7239329999999999
 10
3.050752
 20
-0.690846
 10
3.049275999999999
 20
-0.657709
 10
3.047349999999999
 20
-0.624594
 10
3.044972
 20
-0.591516
 10
3.042125999999999
 20
-0.558547
 10
3.038845999999999
 20
-0.5256970000000001
 10
3.035118
 20
-0.493051
 10
3.030920999999999
 20
-0.4606060000000001
 10
3.026295
 20
-0.4284290000000001
 10
3.021196999999999
 20
-0.396555
 10
3.015641999999999
 20
-0.365039
 10
3.009646
 20
-0.333917
 10
3.003216999999999
 20
-0.303232
 10
2.996315
 20
-0.273004
 10
2.988949
 20
-0.243323
 10
2.981145999999999
 20
-0.214193
 10
2.972893999999999
 20
-0.185665
 10
2.964173
 20
-0.157772
 10
2.955004
 20
-0.130594
 10
2.945382
 20
-0.104134
 10
2.935311
 20
-0.078457
 10
2.930571
 20
-0.085598
 10
2.930405999999999
 20
-0.07522
 10
2.922838999999999
 20
-0.075362
 10
2.925665
 20
-0.082362
  0
LWPOLYLINE
  5
8CD
330
1E
100
AcDbEntity
  8
LAYER_1
  6
CONTINUOUS
 62
    39
100
AcDbPolyline
 90
       68
 70
     1
 43
0.010417
 10
4.370854
 20
-0.165039
 10
4.366705
 20
-0.159972
 10
4.365192999999999
 20
-0.159657
 10
4.360763999999999
 20
-0.158803
 10
4.353437
 20
-0.157425
 10
4.343188999999999
 20
-0.155543
 10
4.330079
 20
-0.153248
 10
4.314071
 20
-0.150555
 10
4.295224
 20
-0.147504
 10
4.273503999999999
 20
-0.144118
 10
4.248948999999999
 20
-0.140476
 10
4.221591
 20
-0.136602
 10
4.191398
 20
-0.132535
 10
4.158405999999999
 20
-0.128299
 10
4.12263
 20
-0.123969
 10
4.084101999999999
 20
-0.119571
 10
4.042787
 20
-0.115142
 10
3.998732
 20
-0.110728
 10
3.951937
 20
-0.106366
 10
3.902441
 20
-0.102079
 10
3.850208999999999
 20
-0.097945
 10
3.795282999999999
 20
-0.093992
 10
3.737673
 20
-0.090252
 10
3.677389999999999
 20
-0.086772
 10
3.614444999999999
 20
-0.083594
 10
3.548873999999999
 20
-0.080752
 10
3.480649999999999
 20
-0.078295
 10
3.409802999999999
 20
-0.07626
 10
3.336345999999999
 20
-0.074689
 10
3.260291
 20
-0.073622
 10
3.181653999999999
 20
-0.073083
 10
3.100468999999999
 20
-0.073146
 10
3.016697
 20
-0.073858
 10
2.930405999999999
 20
-0.07522
 10
2.930571
 20
-0.085598
 10
3.016823
 20
-0.084236
 10
3.100508
 20
-0.083563
 10
3.181653999999999
 20
-0.0835
 10
3.260213
 20
-0.084
 10
3.336180999999999
 20
-0.085067
 10
3.409558999999999
 20
-0.086638
 10
3.480326999999999
 20
-0.088673
 10
3.548465
 20
-0.09113
 10
3.613995999999999
 20
-0.093972
 10
3.676862
 20
-0.09715
 10
3.737058999999999
 20
-0.10063
 10
3.794591
 20
-0.10437
 10
3.849437
 20
-0.108323
 10
3.901583
 20
-0.112457
 10
3.951038999999999
 20
-0.116705
 10
3.997755999999999
 20
-0.121067
 10
4.041731999999999
 20
-0.12548
 10
4.082961
 20
-0.129909
 10
4.121449
 20
-0.134307
 10
4.157146
 20
-0.138638
 10
4.190051
 20
-0.142835
 10
4.220164999999999
 20
-0.146902
 10
4.247484
 20
-0.150776
 10
4.271961
 20
-0.154417
 10
4.293594
 20
-0.157764
 10
4.312401999999999
 20
-0.160815
 10
4.328330999999999
 20
-0.163508
 10
4.341401999999999
 20
-0.165803
 10
4.351562999999999
 20
-0.167638
 10
4.35885
 20
-0.169016
 10
4.363201
 20
-0.16987
 10
4.364626
 20
-0.170146
 10
4.360476
 20
-0.165079
  0
LWPOLYLINE
  5
913
330
1E
100
AcDbEntity
  8
LAYER_1
  6
CONTINUOUS
 62
    39
100
AcDbPolyline
 90
        2
 70
     0
 43
0.008
 10
3.015141999999999
 20
-0.404689
 10
3.029465
 20
-0.468504
  0
LWPOLYLINE
  5
917
330
1E
100
AcDbEntity
  8
LAYER_1
  6
CONTINUOUS
 62
    39
100
AcDbPolyline
 90
       31
 70
     0
 43
0.008
 10
3.026861999999999
 20
-1.075393999999999
 10
3.136963
 20
-1.06716
 10
3.240540999999999
 20
-1.057137999999999
 10
3.337812
 20
-1.045466
 10
3.42899
 20
-1.032283999999999
 10
3.514291999999999
 20
-1.01773
 10
3.593930999999999
 20
-1.001943
 10
3.668123
 20
-0.9850610000000001
 10
3.737082
 20
-0.967225
 10
3.801025
 20
-0.948573
 10
3.860165
 20
-0.9292429999999999
 10
3.914718
 20
-0.909375
 10
3.964898999999999
 20
-0.889108
 10
4.010923
 20
-0.8685799999999998
 10
4.053005
 20
-0.8479309999999999
 10
4.091359999999999
 20
-0.827299
 10
4.126203
 20
-0.8068239999999999
 10
4.157748999999999
 20
-0.786643
 10
4.186213999999999
 20
-0.7668970000000001
 10
4.211810999999999
 20
-0.7477229999999999
 10
4.234755999999999
 20
-0.729262
 10
4.255265
 20
-0.711651
 10
4.273551999999999
 20
-0.6950310000000001
 10
4.289831999999999
 20
-0.679538
 10
4.304319999999999
 20
-0.6653140000000001
 10
4.317231999999999
 20
-0.652496
 10
4.328782
 20
-0.641223
 10
4.339184999999999
 20
-0.6316350000000001
 10
4.348657
 20
-0.6238700000000001
 10
4.357412
 20
-0.6180680000000001
 10
4.365664999999999
 20
-0.614366
  0
LWPOLYLINE
  5
938
330
1E
100
AcDbEntity
  8
LAYER_1
  6
CONTINUOUS
 62
    39
100
AcDbPolyline
 90
        2
 70
     0
 43
0.008
 10
-3.914598
 20
-0.420319
 10
-3.887248
 20
-0.485433
  0
HATCH
  5
9D7
330
1E
100
AcDbEntity
  8
0
  6
CONTINUOUS
 62
   141
100
AcDbHatch
 10
0.0
 20
0.0
 30
0.0
210
0.0
220
0.0
230
1.0
  2
SOLID
 70
     1
 71
     1
 91
        1
 92
        7
 72
     0
 73
     1
 93
       98
 10
1.865732000000002
 20
0.0789369999999994
 10
1.830843000000002
 20
0.0985349999999978
 10
1.79330300000001
 20
0.1185549999999956
 10
1.75309799999999
 20
0.1388740000000016
 10
1.710212999999999
 20
0.1592950000000011
 10
1.664646000000001
 20
0.1797199999999998
 10
1.616357999999997
 20
0.1999529999999983
 10
1.565306999999997
 20
0.219886000000002
 10
1.511535000000004
 20
0.2393579999999996
 10
1.454961000000003
 20
0.2582170000000002
 10
1.395583
 20
0.2763110000000002
 10
1.333413000000003
 20
0.2934999999999989
 10
1.268369999999997
 20
0.3096300000000004
 10
1.200496000000003
 20
0.324582999999999
 10
1.129748000000001
 20
0.3381540000000002
 10
1.056066999999999
 20
0.350252
 10
0.9795000000000019
 20
0.360705
 10
0.8999880000000032
 20
0.3693819999999999
 10
0.8175199999999996
 20
0.3760910000000002
 10
0.7320750000000014
 20
0.380732
 10
0.6436380000000004
 20
0.383138
 10
0.5521499999999994
 20
0.383154
 10
0.4576570000000002
 20
0.3806340000000001
 10
0.3684101781763057
 20
0.3758770597029553
 10
0.5258897923558791
 20
-0.1170404539241332
 10
0.5289409999999997
 20
-0.1233580000000003
 10
0.532276
 20
-0.1296140000000009
 10
0.5358429999999992
 20
-0.1355790000000006
 10
0.5395549999999999
 20
-0.1412559999999991
 10
0.5434839999999996
 20
-0.1466809999999987
 10
0.547551
 20
-0.1518349999999995
 10
0.551827000000001
 20
-0.1567240000000013
 10
0.5562519999999998
 20
-0.1613779999999998
 10
0.5608499999999994
 20
-0.1657799999999991
 10
0.5655910000000003
 20
-0.1699610000000002
 10
0.5705119999999991
 20
-0.1739089999999993
 10
0.5755670000000002
 20
-0.1776220000000005
 10
0.5807760000000016
 20
-0.1811340000000005
 10
0.5861499999999987
 20
-0.1844569999999993
 10
0.5916459999999998
 20
-0.1875589999999997
 10
0.5972949999999995
 20
-0.1904879999999998
 10
0.603075000000001
 20
-0.1932240000000003
 10
0.608984
 20
-0.195783
 10
0.6150310000000005
 20
-0.1981650000000002
 10
0.6211729999999998
 20
-0.2003619999999999
 10
0.6274720000000005
 20
-0.2024210000000001
 10
0.6338499999999991
 20
-0.2043109999999997
 10
0.6403499999999988
 20
-0.2060389999999997
 10
0.6469450000000004
 20
-0.2076460000000001
 10
0.6536299999999998
 20
-0.209106
 10
0.6604169999999986
 20
-0.2104249999999998
 10
0.6672830000000005
 20
-0.211618
 10
0.6742239999999988
 20
-0.2126809999999997
 10
0.6812559999999995
 20
-0.2136299999999998
 10
0.6883500000000009
 20
-0.2144880000000003
 10
0.6954960000000011
 20
-0.2152440000000001
 10
0.7024486476190475
 20
-0.21585
 10
1.510834320715759
 20
-0.21585
 10
1.530264
 20
-0.2144209999999999
 10
1.550495999999997
 20
-0.2127400000000004
 10
1.571181000000005
 20
-0.2108619999999993
 10
1.592239999999998
 20
-0.2087240000000002
 10
1.613579000000002
 20
-0.2063540000000001
 10
1.635177000000009
 20
-0.2037479999999988
 10
1.656921
 20
-0.2009249999999996
 10
1.678775999999999
 20
-0.197835
 10
1.700696999999997
 20
-0.1945280000000005
 10
1.722570999999995
 20
-0.1909410000000007
 10
1.744349999999998
 20
-0.1871259999999995
 10
1.765953
 20
-0.1830349999999979
 10
1.787365999999998
 20
-0.1787089999999996
 10
1.808464999999998
 20
-0.1741219999999996
 10
1.829212999999993
 20
-0.1692720000000004
 10
1.849551
 20
-0.1641500000000005
 10
1.869378
 20
-0.1587599999999994
 10
1.888660999999998
 20
-0.1531220000000004
 10
1.907302999999998
 20
-0.1471770000000008
 10
1.925271999999998
 20
-0.1410040000000004
 10
1.942472
 20
-0.1345240000000008
 10
1.958839000000001
 20
-0.1277829999999986
 10
1.974311000000004
 20
-0.1207799999999973
 10
1.988843000000001
 20
-0.1135079999999988
 10
2.002318999999999
 20
-0.1059649999999987
 10
2.014704999999998
 20
-0.0981729999999996
 10
2.025901999999998
 20
-0.0901340000000003
 10
2.035873999999999
 20
-0.0818350000000006
 10
2.044559
 20
-0.0733350000000024
 10
2.051886
 20
-0.0646220000000019
 10
2.057819
 20
-0.0557480000000015
 10
2.060144668366011
 20
-0.0510724804331985
 10
2.052330999999968
 20
-0.0451139999999789
 10
2.037790999999984
 20
-0.0341569999999976
 10
2.020818999999994
 20
-0.0216259999999984
 10
2.001330999999995
 20
-0.0076339999999971
 10
1.979322999999996
 20
0.0076649999999989
 10
1.954787000000001
 20
0.0240940000000022
 10
1.927684999999995
 20
0.0415669999999981
 10
1.898000000000002
 20
0.059881999999997
 97
        5
330
1D7
330
220
330
227
330
26D
330
274
 75
     0
 76
     1
 47
0.0080327097982842
 98
        1
 10
0.848415869693774
 20
0.0632958712782426
  0
HATCH
  5
A5F
330
1E
100
AcDbEntity
  8
0
  6
CONTINUOUS
 62
   141
100
AcDbHatch
 10
0.0
 20
0.0
 30
0.0
210
0.0
220
0.0
230
1.0
  2
SOLID
 70
     1
 71
     1
 91
        1
 92
        7
 72
     0
 73
     1
 93
      135
 10
0.046215431979818
 20
0.1011345657387128
 10
0.0425750000000001
 20
0.107567
 10
0.0386060000000001
 20
0.1139609999999996
 10
0.0345200000000004
 20
0.1199209999999998
 10
0.0303269999999999
 20
0.1255040000000002
 10
0.0260350000000002
 20
0.1306849999999997
 10
0.0216460000000002
 20
0.1354999999999999
 10
0.017154
 20
0.139953
 10
0.0125389999999999
 20
0.1440200000000003
 10
0.0078270000000002
 20
0.1477829999999998
 10
0.0029959999999997
 20
0.1512050000000001
 10
-0.0019370000000002
 20
0.154299
 10
-0.0069879999999996
 20
0.1570940000000001
 10
-0.0121380000000002
 20
0.159598
 10
-0.0174250000000005
 20
0.1618230000000002
 10
-0.0228110000000002
 20
0.1637560000000001
 10
-0.0283390000000005
 20
0.165453
 10
-0.0339840000000002
 20
0.166874
 10
-0.0397679999999998
 20
0.1680549999999999
 10
-0.0456690000000001
 20
0.168984
 10
-0.0517089999999996
 20
0.169693
 10
-0.0578860000000004
 20
0.170173
 10
-0.0641769999999997
 20
0.170429
 10
-0.0706300000000007
 20
0.170492
 10
-0.0772009999999999
 20
0.170374
 10
-0.083881999999999
 20
0.1700430000000001
 10
-0.0907009999999981
 20
0.1695280000000001
 10
-0.0976379999999995
 20
0.168862
 10
-0.1047129999999984
 20
0.1680310000000002
 10
-0.111902000000001
 20
0.1670279999999996
 10
-0.1192239999999977
 20
0.1658980000000005
 10
-0.126684999999997
 20
0.1646140000000004
 10
-0.1340068612542754
 20
0.1632774774463864
 10
-0.4410147447442596
 20
0.0861992396637835
 10
-0.4410199999999999
 20
0.086311
 10
-0.445988
 20
0.085992
 10
-0.4508980000000004
 20
0.085535
 10
-0.455760000000001
 20
0.0849249999999999
 10
-0.4605470000000011
 20
0.0841609999999997
 10
-0.4652830000000013
 20
0.0832599999999999
 10
-0.4699330000000011
 20
0.0821969999999999
 10
-0.4744959999999999
 20
0.08098
 10
-0.4789719999999997
 20
0.0796180000000001
 10
-0.4833429999999995
 20
0.0780940000000004
 10
-0.4875909999999993
 20
0.076425
 10
-0.4917199999999994
 20
0.0745979999999997
 10
-0.4957280000000008
 20
0.0726419999999996
 10
-0.4995979999999988
 20
0.0704960000000008
 10
-0.5033109999999988
 20
0.0682239999999998
 10
-0.5068859999999999
 20
0.065787
 10
-0.510286999999999
 20
0.063193000000001
 10
-0.5135350000000011
 20
0.0604529999999992
 10
-0.5166139999999993
 20
0.0575390000000001
 10
-0.519484
 20
0.054492000000001
 10
-0.522201
 20
0.0512869999999999
 10
-0.5247169999999998
 20
0.0479090000000002
 10
-0.5270199999999999
 20
0.0443740000000011
 10
-0.5291260000000003
 20
0.0406769999999987
 10
-0.5310239999999997
 20
0.0368030000000011
 10
-0.5327049999999996
 20
0.0327679999999998
 10
-0.5341610000000001
 20
0.0285469999999991
 10
-0.5353819999999999
 20
0.0241459999999992
 10
-0.5363660000000001
 20
0.0195590000000005
 10
-0.5370750000000002
 20
0.014767999999998
 10
-0.5375470000000001
 20
0.0098069999999997
 10
-0.537732
 20
0.004638000000001
 10
-0.5376660380648585
 20
-0.0001095003452424
 10
-0.4831071673484446
 20
-0.1806621493589243
 10
-0.4831180000000001
 20
-0.180665
 10
-0.4818699999999994
 20
-0.1850630000000013
 10
-0.4804919999999998
 20
-0.1893309999999999
 10
-0.478995999999999
 20
-0.1934720000000005
 10
-0.4773619999999995
 20
-0.1974879999999988
 10
-0.475583
 20
-0.201345999999999
 10
-0.4736930000000012
 20
-0.2050939999999993
 10
-0.4716689999999998
 20
-0.2086809999999998
 10
-0.4695279999999994
 20
-0.2121500000000008
 10
-0.4672599999999983
 20
-0.2154720000000017
 10
-0.4648780000000003
 20
-0.2186260000000002
 10
-0.4623859999999999
 20
-0.2216570000000002
 10
-0.4597760000000015
 20
-0.2245350000000003
 10
-0.4570549999999994
 20
-0.2272640000000006
 10
-0.4542129999999999
 20
-0.22985
 10
-0.4512679999999997
 20
-0.2322830000000001
 10
-0.448205000000001
 20
-0.2345509999999991
 10
-0.4450200000000001
 20
-0.2366769999999994
 10
-0.441744000000001
 20
-0.2386569999999999
 10
-0.4383700000000006
 20
-0.2404689999999994
 10
-0.4348619999999995
 20
-0.2421060000000002
 10
-0.431264
 20
-0.2435869999999998
 10
-0.4275590000000006
 20
-0.2449130000000005
 10
-0.4237200000000003
 20
-0.2460830000000001
 10
-0.4197989999999984
 20
-0.2470670000000003
 10
-0.4157719999999998
 20
-0.247862
 10
-0.4116139999999994
 20
-0.248516
 10
-0.4073819999999994
 20
-0.2489610000000002
 10
-0.4030310000000007
 20
-0.249252
 10
-0.3985590000000014
 20
-0.249327
 10
-0.3939920000000011
 20
-0.24924
 10
-0.3893499999999998
 20
-0.2489369999999999
 10
-0.383961
 20
-0.2483867108181628
 10
-0.383961
 20
-0.2484090000000001
 10
0.0014935645675864
 20
-0.2471061265353585
 10
0.0072599999999992
 20
-0.2466810000000001
 10
0.0132360000000008
 20
-0.2460199999999998
 10
0.0191179999999994
 20
-0.2451970000000001
 10
0.0249409999999992
 20
-0.2441649999999998
 10
0.030654000000001
 20
-0.2429570000000001
 10
0.0362719999999997
 20
-0.2415549999999999
 10
0.0417759999999999
 20
-0.2399799999999998
 10
0.047173
 20
-0.238213
 10
0.0524409999999995
 20
-0.2362559999999997
 10
0.0575829999999995
 20
-0.2341340000000006
 10
0.0625550000000002
 20
-0.2318149999999993
 10
0.0674060000000007
 20
-0.2293309999999994
 10
0.0720669999999997
 20
-0.2266809999999999
 10
0.0765669999999994
 20
-0.2238460000000005
 10
0.0808899999999994
 20
-0.2208460000000002
 10
0.0850430000000002
 20
-0.2176609999999997
 10
0.0889799999999996
 20
-0.2143150000000002
 10
0.0927399999999999
 20
-0.210803
 10
0.0962640000000001
 20
-0.2071340000000008
 10
0.0995910000000002
 20
-0.2032869999999993
 10
0.1027049999999999
 20
-0.1992759999999999
 10
0.1055789999999997
 20
-0.1951100000000004
 10
0.1082090000000004
 20
-0.1907829999999997
 10
0.1105979999999997
 20
-0.1862830000000001
 10
0.1127480000000002
 20
-0.1816259999999994
 10
0.114622
 20
-0.176799
 10
0.116256
 20
-0.1717910000000001
 10
0.117594
 20
-0.1666139999999998
 10
0.11865
 20
-0.1612869999999998
 10
0.1194209999999999
 20
-0.1557680000000005
 10
0.119898
 20
-0.1500980000000003
 10
0.1200262462635958
 20
-0.1448991618109251
 97
        8
330
375
330
3BB
330
3C2
330
408
330
40F
330
321
330
328
330
36E
 75
     0
 76
     1
 47
0.0080327097982842
 98
        1
 10
-0.2685548525193866
 20
-0.0732601972250038
  0
ENDSEC
  0
SECTION
  2
OBJECTS
  0
DICTIONARY
  5
C
330
0
100
AcDbDictionary
  3
ACAD_GROUP
350
D
  3
ACAD_PLOTSTYLENAME
350
E
  3
ACAD_MLINESTYLE
350
16
  3
ACAD_PLOTSETTINGS
350
18
  3
ACAD_LAYOUT
350
19
  3
ACDBVARIABLEDICTIONARY
350
973
  3
ACDBHEADERROUNDTRIPXREC
350
A98
  0
DICTIONARY
  5
ABA
330
1E
100
AcDbDictionary
280
     1
  3
ACAD_LAYOUTSELFREF
360
ABB
  0
DICTIONARY
  5
AB8
330
1A
100
AcDbDictionary
280
     1
  3
ACAD_LAYOUTSELFREF
360
AB9
  0
DICTIONARY
  5
D
102
{ACAD_REACTORS
330
C
102
}
330
C
100
AcDbDictionary
  0
ACDBDICTIONARYWDFLT
  5
E
102
{ACAD_REACTORS
330
C
102
}
330
C
100
AcDbDictionary
281
     1
  3
Normal
350
F
100
AcDbDictionaryWithDefault
340
F
  0
DICTIONARY
  5
16
102
{ACAD_REACTORS
330
C
102
}
330
C
100
AcDbDictionary
  3
STANDARD
350
17
  0
DICTIONARY
  5
18
102
{ACAD_REACTORS
330
C
102
}
330
C
100
AcDbDictionary
  0
DICTIONARY
  5
19
102
{ACAD_REACTORS
330
C
102
}
330
C
100
AcDbDictionary
  0
DICTIONARY
  5
973
102
{ACAD_REACTORS
330
C
102
}
330
C
100
AcDbDictionary
  3
SORTENTS
350
974
  0
DICTIONARY
  5
A98
102
{ACAD_REACTORS
330
C
102
}
330
C
100
AcDbDictionary
  3
TSTACKALIGN
350
A99
  3
TSTACKSIZE
350
A9A
  3
HYPERLINKBASE
350
A9B
  3
STYLESHEET
350
A9C
  3
LAYOUTDICT
350
A9D
  3
PLOTSETDICT
350
A9E
  3
PLOTSTYLNAMDICT
350
A9F
  3
LWETCUNION
350
AA0
  3
INSUNITS
350
AA1
  3
CEPSNTYPE
350
AA2
  3
FINGERPRINTGUID
350
AA3
  3
VERSIONGUID
350
AA4
  3
PSVPSCALE
350
AA5
  3
PUCSORTHOREF
350
AA6
  3
PUCSORTHOVIEW
350
AA7
  3
PUCSBASE
350
AA8
  3
PUCSORGTOP
350
AA9
  3
PUCSORGBOTTOM
350
AAA
  3
PUCSORGLEFT
350
AAB
  3
PUCSORGRIGHT
350
AAC
  3
PUCSORGFRONT
350
AAD
  3
PUCSORGBACK
350
AAE
  3
UCSORTHOREF
350
AAF
  3
UCSORTHOVIEW
350
AB0
  3
UCSBASE
350
AB1
  3
UCSORGTOP
350
AB2
  3
UCSORGBOTTOM
350
AB3
  3
UCSORGLEFT
350
AB4
  3
UCSORGRIGHT
350
AB5
  3
UCSORGFRONT
350
AB6
  3
UCSORGBACK
350
AB7
  0
XRECORD
  5
ABB
102
{ACAD_REACTORS
330
ABA
102
}
330
ABA
100
AcDbXrecord
340
1E
  0
XRECORD
  5
AB9
102
{ACAD_REACTORS
330
AB8
102
}
330
AB8
100
AcDbXrecord
340
1A
  0
ACDBPLACEHOLDER
  5
F
102
{ACAD_REACTORS
330
E
102
}
330
E
100
AcDbPlaceHolder
280
     0
  0
MLINESTYLE
  5
17
102
{ACAD_REACTORS
330
16
102
}
330
16
100
AcDbMlineStyle
  2
STANDARD
 70
     0
  3

 62
   256
 51
90.0
 52
90.0
 71
     2
 49
0.5
 62
   256
  6
BYLAYER
 49
-0.5
 62
   256
  6
BYLAYER
  0
DICTIONARYVAR
  5
974
102
{ACAD_REACTORS
330
973
102
}
330
973
100
DictionaryVariables
280
     0
  1
96
  0
XRECORD
  5
A99
102
{ACAD_REACTORS
330
A98
102
}
330
A98
100
AcDbXrecord
 90
        1
  0
XRECORD
  5
A9A
102
{ACAD_REACTORS
330
A98
102
}
330
A98
100
AcDbXrecord
 90
       70
  0
XRECORD
  5
A9B
102
{ACAD_REACTORS
330
A98
102
}
330
A98
100
AcDbXrecord
  1

  0
XRECORD
  5
A9C
102
{ACAD_REACTORS
330
A98
102
}
330
A98
100
AcDbXrecord
  1

  0
XRECORD
  5
A9D
102
{ACAD_REACTORS
330
A98
102
}
330
A98
100
AcDbXrecord
340
19
  0
XRECORD
  5
A9E
102
{ACAD_REACTORS
330
A98
102
}
330
A98
100
AcDbXrecord
340
18
  0
XRECORD
  5
A9F
102
{ACAD_REACTORS
330
A98
102
}
330
A98
100
AcDbXrecord
340
E
  0
XRECORD
  5
AA0
102
{ACAD_REACTORS
330
A98
102
}
330
A98
100
AcDbXrecord
 90
    10781
  0
XRECORD
  5
AA1
102
{ACAD_REACTORS
330
A98
102
}
330
A98
100
AcDbXrecord
 90
        0
  0
XRECORD
  5
AA2
102
{ACAD_REACTORS
330
A98
102
}
330
A98
100
AcDbXrecord
 90
        0
  0
XRECORD
  5
AA3
102
{ACAD_REACTORS
330
A98
102
}
330
A98
100
AcDbXrecord
  1
{3ACE423C-43DB-47B3-82CF-4BA366FF2655}
  0
XRECORD
  5
AA4
102
{ACAD_REACTORS
330
A98
102
}
330
A98
100
AcDbXrecord
  1
{C12CC06C-6436-434C-BC66-6325F54721A4}
  0
XRECORD
  5
AA5
102
{ACAD_REACTORS
330
A98
102
}
330
A98
100
AcDbXrecord
 40
0.0
  0
XRECORD
  5
AA6
102
{ACAD_REACTORS
330
A98
102
}
330
A98
100
AcDbXrecord
340
0
  0
XRECORD
  5
AA7
102
{ACAD_REACTORS
330
A98
102
}
330
A98
100
AcDbXrecord
 70
     0
  0
XRECORD
  5
AA8
102
{ACAD_REACTORS
330
A98
102
}
330
A98
100
AcDbXrecord
340
0
  0
XRECORD
  5
AA9
102
{ACAD_REACTORS
330
A98
102
}
330
A98
100
AcDbXrecord
 10
0.0
 20
0.0
 30
0.0
  0
XRECORD
  5
AAA
102
{ACAD_REACTORS
330
A98
102
}
330
A98
100
AcDbXrecord
 10
0.0
 20
0.0
 30
0.0
  0
XRECORD
  5
AAB
102
{ACAD_REACTORS
330
A98
102
}
330
A98
100
AcDbXrecord
 10
0.0
 20
0.0
 30
0.0
  0
XRECORD
  5
AAC
102
{ACAD_REACTORS
330
A98
102
}
330
A98
100
AcDbXrecord
 10
0.0
 20
0.0
 30
0.0
  0
XRECORD
  5
AAD
102
{ACAD_REACTORS
330
A98
102
}
330
A98
100
AcDbXrecord
 10
0.0
 20
0.0
 30
0.0
  0
XRECORD
  5
AAE
102
{ACAD_REACTORS
330
A98
102
}
330
A98
100
AcDbXrecord
 10
0.0
 20
0.0
 30
0.0
  0
XRECORD
  5
AAF
102
{ACAD_REACTORS
330
A98
102
}
330
A98
100
AcDbXrecord
340
0
  0
XRECORD
  5
AB0
102
{ACAD_REACTORS
330
A98
102
}
330
A98
100
AcDbXrecord
 70
     0
  0
XRECORD
  5
AB1
102
{ACAD_REACTORS
330
A98
102
}
330
A98
100
AcDbXrecord
340
0
  0
XRECORD
  5
AB2
102
{ACAD_REACTORS
330
A98
102
}
330
A98
100
AcDbXrecord
 10
0.0
 20
0.0
 30
0.0
  0
XRECORD
  5
AB3
102
{ACAD_REACTORS
330
A98
102
}
330
A98
100
AcDbXrecord
 10
0.0
 20
0.0
 30
0.0
  0
XRECORD
  5
AB4
102
{ACAD_REACTORS
330
A98
102
}
330
A98
100
AcDbXrecord
 10
0.0
 20
0.0
 30
0.0
  0
XRECORD
  5
AB5
102
{ACAD_REACTORS
330
A98
102
}
330
A98
100
AcDbXrecord
 10
0.0
 20
0.0
 30
0.0
  0
XRECORD
  5
AB6
102
{ACAD_REACTORS
330
A98
102
}
330
A98
100
AcDbXrecord
 10
0.0
 20
0.0
 30
0.0
  0
XRECORD
  5
AB7
102
{ACAD_REACTORS
330
A98
102
}
330
A98
100
AcDbXrecord
 10
0.0
 20
0.0
 30
0.0
  0
ENDSEC
  0
EOF
