  0
SECTION
  2
HEADER
  9
$ACADVER
  1
AC1014
  9
$ACADMAINTVER
 70
     0
  9
$DWGCODEPAGE
  3
ANSI_1252
  9
$INSBASE
 10
0.0
 20
0.0
 30
0.0
  9
$EXTMIN
 10
7.060487
 20
-14.629524
 30
0.0
  9
$EXTMAX
 10
135.104168
 20
38.598783
 30
0.013219
  9
$LIMMIN
 10
0.0
 20
0.0
  9
$LIMMAX
 10
12.0
 20
9.0
  9
$ORTHOMODE
 70
     0
  9
$REGENMODE
 70
     1
  9
$FILLMODE
 70
     1
  9
$QTEXTMODE
 70
     0
  9
$MIRRTEXT
 70
     1
  9
$DRAGMODE
 70
     2
  9
$LTSCALE
 40
1.0
  9
$OSMODE
 70
     5
  9
$ATTMODE
 70
     1
  9
$TEXTSIZE
 40
0.2
  9
$TRACEWID
 40
0.05
  9
$TEXTSTYLE
  7
STANDARD
  9
$CLAYER
  8
0
  9
$CELTYPE
  6
DASHED
  9
$CECOLOR
 62
   256
  9
$CELTSCALE
 40
1.0
  9
$DELOBJ
 70
     1
  9
$DISPSILH
 70
     0
  9
$DIMSCALE
 40
1.0
  9
$DIMASZ
 40
0.18
  9
$DIMEXO
 40
0.0625
  9
$DIMDLI
 40
0.38
  9
$DIMRND
 40
0.0
  9
$DIMDLE
 40
0.0
  9
$DIMEXE
 40
0.18
  9
$DIMTP
 40
0.0
  9
$DIMTM
 40
0.0
  9
$DIMTXT
 40
0.18
  9
$DIMCEN
 40
0.09
  9
$DIMTSZ
 40
0.0
  9
$DIMTOL
 70
     0
  9
$DIMLIM
 70
     0
  9
$DIMTIH
 70
     1
  9
$DIMTOH
 70
     1
  9
$DIMSE1
 70
     0
  9
$DIMSE2
 70
     0
  9
$DIMTAD
 70
     0
  9
$DIMZIN
 70
     0
  9
$DIMBLK
  1

  9
$DIMASO
 70
     1
  9
$DIMSHO
 70
     1
  9
$DIMPOST
  1

  9
$DIMAPOST
  1

  9
$DIMALT
 70
     0
  9
$DIMALTD
 70
     2
  9
$DIMALTF
 40
25.4
  9
$DIMLFAC
 40
1.0
  9
$DIMTOFL
 70
     0
  9
$DIMTVP
 40
0.0
  9
$DIMTIX
 70
     0
  9
$DIMSOXD
 70
     0
  9
$DIMSAH
 70
     0
  9
$DIMBLK1
  1

  9
$DIMBLK2
  1

  9
$DIMSTYLE
  2
STANDARD
  9
$DIMCLRD
 70
     0
  9
$DIMCLRE
 70
     0
  9
$DIMCLRT
 70
     0
  9
$DIMTFAC
 40
1.0
  9
$DIMGAP
 40
0.09
  9
$DIMJUST
 70
     0
  9
$DIMSD1
 70
     0
  9
$DIMSD2
 70
     0
  9
$DIMTOLJ
 70
     1
  9
$DIMTZIN
 70
     0
  9
$DIMALTZ
 70
     0
  9
$DIMALTTZ
 70
     0
  9
$DIMFIT
 70
     3
  9
$DIMUPT
 70
     0
  9
$DIMUNIT
 70
     2
  9
$DIMDEC
 70
     4
  9
$DIMTDEC
 70
     4
  9
$DIMALTU
 70
     2
  9
$DIMALTTD
 70
     2
  9
$DIMTXSTY
  7
STANDARD
  9
$DIMAUNIT
 70
     0
  9
$LUNITS
 70
     2
  9
$LUPREC
 70
     4
  9
$SKETCHINC
 40
0.1
  9
$FILLETRAD
 40
1.5
  9
$AUNITS
 70
     0
  9
$AUPREC
 70
     0
  9
$MENU
  1
.
  9
$ELEVATION
 40
0.0
  9
$PELEVATION
 40
0.0
  9
$THICKNESS
 40
0.0
  9
$LIMCHECK
 70
     0
  9
$BLIPMODE
 70
     0
  9
$CHAMFERA
 40
0.5
  9
$CHAMFERB
 40
0.5
  9
$CHAMFERC
 40
1.0
  9
$CHAMFERD
 40
0.0
  9
$SKPOLY
 70
     0
  9
$TDCREATE
 40
2452131.376384259
  9
$TDUPDATE
 40
2453318.482401504
  9
$TDINDWG
 40
0.7284726852
  9
$TDUSRTIMER
 40
0.7284726852
  9
$USRTIMER
 70
     1
  9
$ANGBASE
 50
0.0
  9
$ANGDIR
 70
     0
  9
$PDMODE
 70
     0
  9
$PDSIZE
 40
0.0
  9
$PLINEWID
 40
0.0
  9
$COORDS
 70
     2
  9
$SPLFRAME
 70
     0
  9
$SPLINETYPE
 70
     6
  9
$SPLINESEGS
 70
     8
  9
$ATTDIA
 70
     0
  9
$ATTREQ
 70
     1
  9
$HANDLING
 70
     1
  9
$HANDSEED
  5
F78
  9
$SURFTAB1
 70
     6
  9
$SURFTAB2
 70
     6
  9
$SURFTYPE
 70
     6
  9
$SURFU
 70
     6
  9
$SURFV
 70
     6
  9
$UCSNAME
  2

  9
$UCSORG
 10
0.0
 20
0.0
 30
0.0
  9
$UCSXDIR
 10
1.0
 20
0.0
 30
0.0
  9
$UCSYDIR
 10
0.0
 20
1.0
 30
0.0
  9
$PUCSNAME
  2

  9
$PUCSORG
 10
0.0
 20
0.0
 30
0.0
  9
$PUCSXDIR
 10
1.0
 20
0.0
 30
0.0
  9
$PUCSYDIR
 10
0.0
 20
1.0
 30
0.0
  9
$USERI1
 70
     0
  9
$USERI2
 70
     0
  9
$USERI3
 70
     0
  9
$USERI4
 70
     0
  9
$USERI5
 70
     0
  9
$USERR1
 40
0.0
  9
$USERR2
 40
0.0
  9
$USERR3
 40
0.0
  9
$USERR4
 40
0.0
  9
$USERR5
 40
0.0
  9
$WORLDVIEW
 70
     1
  9
$SHADEDGE
 70
     3
  9
$SHADEDIF
 70
    70
  9
$TILEMODE
 70
     1
  9
$MAXACTVP
 70
    48
  9
$PINSBASE
 10
0.0
 20
0.0
 30
0.0
  9
$PLIMCHECK
 70
     0
  9
$PEXTMIN
 10
1.000000E+20
 20
1.000000E+20
 30
1.000000E+20
  9
$PEXTMAX
 10
-1.000000E+20
 20
-1.000000E+20
 30
-1.000000E+20
  9
$PLIMMIN
 10
0.0
 20
0.0
  9
$PLIMMAX
 10
12.0
 20
9.0
  9
$UNITMODE
 70
     0
  9
$VISRETAIN
 70
     1
  9
$PLINEGEN
 70
     0
  9
$PSLTSCALE
 70
     1
  9
$TREEDEPTH
 70
  3020
  9
$PICKSTYLE
 70
     1
  9
$CMLSTYLE
  2
STANDARD
  9
$CMLJUST
 70
     0
  9
$CMLSCALE
 40
1.0
  9
$PROXYGRAPHICS
 70
     1
  9
$MEASUREMENT
 70
     0
  0
ENDSEC
  0
SECTION
  2
CLASSES
  0
CLASS
  1
ACDBDICTIONARYWDFLT
  2
AcDbDictionaryWithDefault
  3
AutoCAD 2000
 90
        0
280
     0
281
     0
  0
CLASS
  1
ACDBPLACEHOLDER
  2
AcDbPlaceHolder
  3
AutoCAD 2000
 90
        0
280
     0
281
     0
  0
CLASS
  1
LAYOUT
  2
AcDbLayout
  3
AutoCAD 2000
 90
        0
280
     0
281
     0
  0
CLASS
  1
DICTIONARYVAR
  2
AcDbDictionaryVar
  3
"AutoCAD"
 90
        0
280
     0
281
     0
  0
CLASS
  1
LONG_TRANSACTION
  2
AcDbLongTransaction
  3
AutoCAD 2000
 90
        0
280
     0
281
     0
  0
CLASS
  1
LWPOLYLINE
  2
AcDbPolyline
  3
"AutoCAD"
 90
        0
280
     0
281
     1
  0
CLASS
  1
HATCH
  2
AcDbHatch
  3
"ACAD_SEDONA"
 90
        0
280
     0
281
     1
  0
CLASS
  1
XRECORD
  2
AcDbXrecord
  3
"<Built In>"
 90
        0
280
     0
281
     0
  0
CLASS
  1
LONG_TRANSACTION
  2
AcDbLongTransaction
  3
AutoCAD 2000
 90
        0
280
     0
281
     0
  0
CLASS
  1
LWPOLYLINE
  2
AcDbPolyline
  3
"AutoCAD"
 90
        0
280
     0
281
     1
  0
CLASS
  1
HATCH
  2
AcDbHatch
  3
"ACAD_SEDONA"
 90
        0
280
     0
281
     1
  0
CLASS
  1
XRECORD
  2
AcDbXrecord
  3
"<Built In>"
 90
        0
280
     0
281
     0
  0
CLASS
  1
LONG_TRANSACTION
  2
AcDbLongTransaction
  3
AutoCAD 2000
 90
        0
280
     0
281
     0
  0
CLASS
  1
LWPOLYLINE
  2
AcDbPolyline
  3
"AutoCAD"
 90
        0
280
     0
281
     1
  0
CLASS
  1
HATCH
  2
AcDbHatch
  3
"ACAD_SEDONA"
 90
        0
280
     0
281
     1
  0
CLASS
  1
XRECORD
  2
AcDbXrecord
  3
"<Built In>"
 90
        0
280
     0
281
     0
  0
ENDSEC
  0
SECTION
  2
TABLES
  0
TABLE
  2
VPORT
  5
8
100
AcDbSymbolTable
 70
     1
  0
VPORT
  5
F71
100
AcDbSymbolTableRecord
100
AcDbViewportTableRecord
  2
*ACTIVE
 70
     0
 10
0.0
 20
0.0
 11
1.0
 21
1.0
 12
52.219585
 22
2.740341
 13
0.0
 23
0.0
 14
0.5
 24
0.5
 15
0.5
 25
0.5
 16
0.0
 26
0.0
 36
1.0
 17
0.0
 27
0.0
 37
0.0
 40
57.000979
 41
1.587074
 42
50.0
 43
0.0
 44
0.0
 50
0.0
 51
0.0
 71
     0
 72
  2000
 73
     1
 74
     3
 75
     0
 76
     0
 77
     0
 78
     0
  0
ENDTAB
  0
TABLE
  2
LTYPE
  5
5
100
AcDbSymbolTable
 70
     2
  0
LTYPE
  5
14
102
{ACAD_XDICTIONARY
360
F35
102
}
100
AcDbSymbolTableRecord
100
AcDbLinetypeTableRecord
  2
BYBLOCK
 70
     0
  3

 72
    65
 73
     0
 40
0.0
  0
LTYPE
  5
15
102
{ACAD_XDICTIONARY
360
F37
102
}
100
AcDbSymbolTableRecord
100
AcDbLinetypeTableRecord
  2
BYLAYER
 70
     0
  3

 72
    65
 73
     0
 40
0.0
  0
LTYPE
  5
16
102
{ACAD_XDICTIONARY
360
F39
102
}
100
AcDbSymbolTableRecord
100
AcDbLinetypeTableRecord
  2
CONTINUOUS
 70
     0
  3
Solid line
 72
    65
 73
     0
 40
0.0
  0
LTYPE
  5
EDF
100
AcDbSymbolTableRecord
100
AcDbLinetypeTableRecord
  2
DASHED
 70
     0
  3
Dashed __ __ __ __ __ __ __ __ __ __ __ __ __ _
 72
    65
 73
     2
 40
0.75
 49
0.5
 74
     0
 49
-0.25
 74
     0
  0
ENDTAB
  0
TABLE
  2
LAYER
  5
2
100
AcDbSymbolTable
 70
     3
  0
LAYER
  5
10
100
AcDbSymbolTableRecord
100
AcDbLayerTableRecord
  2
0
 70
     0
 62
     7
  6
CONTINUOUS
  0
LAYER
  5
62B
102
{ACAD_XDICTIONARY
360
F33
102
}
100
AcDbSymbolTableRecord
100
AcDbLayerTableRecord
  2
DEFPOINTS
 70
     0
 62
     7
  6
CONTINUOUS
  0
LAYER
  5
739
100
AcDbSymbolTableRecord
100
AcDbLayerTableRecord
  2
EAGLELEFT
 70
     0
 62
     7
  6
CONTINUOUS
  0
ENDTAB
  0
TABLE
  2
STYLE
  5
3
100
AcDbSymbolTable
 70
     2
  0
STYLE
  5
11
102
{ACAD_XDICTIONARY
360
F3B
102
}
100
AcDbSymbolTableRecord
100
AcDbTextStyleTableRecord
  2
STANDARD
 70
     0
 40
0.0
 41
1.0
 50
0.0
 71
     0
 42
0.2
  3
txt
  4

  0
STYLE
  5
EDE
100
AcDbSymbolTableRecord
100
AcDbTextStyleTableRecord
  2

 70
     1
 40
0.0
 41
1.0
 50
0.0
 71
     0
 42
0.2
  3
ltypeshp.shx
  4

  0
ENDTAB
  0
TABLE
  2
VIEW
  5
6
100
AcDbSymbolTable
 70
     0
  0
ENDTAB
  0
TABLE
  2
UCS
  5
7
100
AcDbSymbolTable
 70
     0
  0
ENDTAB
  0
TABLE
  2
APPID
  5
9
100
AcDbSymbolTable
 70
     2
  0
APPID
  5
12
100
AcDbSymbolTableRecord
100
AcDbRegAppTableRecord
  2
ACAD
 70
     0
  0
APPID
  5
79A
100
AcDbSymbolTableRecord
100
AcDbRegAppTableRecord
  2
DCO15
 70
     0
  0
ENDTAB
  0
TABLE
  2
DIMSTYLE
  5
A
100
AcDbSymbolTable
 70
     1
  0
DIMSTYLE
105
27
102
{ACAD_XDICTIONARY
360
F31
102
}
102
{ACAD_REACTORS
330
6ED
330
30C
330
731
102
}
100
AcDbSymbolTableRecord
100
AcDbDimStyleTableRecord
  2
STANDARD
 70
     0
  3

  4

  5

  6

  7

 40
1.0
 41
0.18
 42
0.0625
 43
0.38
 44
0.18
 45
0.0
 46
0.0
 47
0.0
 48
0.0
140
0.18
141
0.09
142
0.0
143
25.4
144
1.0
145
0.0
146
1.0
147
0.09
 71
     0
 72
     0
 73
     1
 74
     1
 75
     0
 76
     0
 77
     0
 78
     0
170
     0
171
     2
172
     0
173
     0
174
     0
175
     0
176
     0
177
     0
178
     0
270
     2
271
     4
272
     4
273
     2
274
     2
340
11
275
     0
280
     0
281
     0
282
     0
283
     1
284
     0
285
     0
286
     0
287
     3
288
     0
  0
ENDTAB
  0
TABLE
  2
BLOCK_RECORD
  5
1
100
AcDbSymbolTable
 70
     1
  0
BLOCK_RECORD
  5
1F
102
{ACAD_XDICTIONARY
360
7A2
102
}
100
AcDbSymbolTableRecord
100
AcDbBlockTableRecord
  2
*MODEL_SPACE
  0
BLOCK_RECORD
  5
1B
102
{ACAD_XDICTIONARY
360
7A4
102
}
100
AcDbSymbolTableRecord
100
AcDbBlockTableRecord
  2
*PAPER_SPACE
  0
BLOCK_RECORD
  5
23
102
{ACAD_XDICTIONARY
360
7A6
102
}
100
AcDbSymbolTableRecord
100
AcDbBlockTableRecord
  2
*PAPER_SPACE0
  0
ENDTAB
  0
ENDSEC
  0
SECTION
  2
BLOCKS
  0
BLOCK
  5
20
100
AcDbEntity
  8
0
100
AcDbBlockBegin
  2
*MODEL_SPACE
 70
     0
 10
0.0
 20
0.0
 30
0.0
  3
*MODEL_SPACE
  1

  0
ENDBLK
  5
21
100
AcDbEntity
  8
0
100
AcDbBlockEnd
  0
BLOCK
  5
1C
100
AcDbEntity
 67
     1
  8
0
100
AcDbBlockBegin
  2
*PAPER_SPACE
 70
     0
 10
0.0
 20
0.0
 30
0.0
  3
*PAPER_SPACE
  1

  0
ENDBLK
  5
1D
100
AcDbEntity
 67
     1
  8
0
100
AcDbBlockEnd
  0
BLOCK
  5
24
100
AcDbEntity
  8
0
100
AcDbBlockBegin
  2
*PAPER_SPACE0
 70
     0
 10
0.0
 20
0.0
 30
0.0
  3
*PAPER_SPACE0
  1

  0
ENDBLK
  5
25
100
AcDbEntity
  8
0
100
AcDbBlockEnd
  0
ENDSEC
  0
SECTION
  2
ENTITIES
  0
LINE
  5
8F
100
AcDbEntity
  8
0
  6
CONTINUOUS
100
AcDbLine
 10
24.600113
 20
8.002423
 30
0.0
 11
27.090371
 21
8.002423
 31
0.0
  0
LINE
  5
90
100
AcDbEntity
  8
0
  6
CONTINUOUS
100
AcDbLine
 10
24.600113
 20
8.627423
 30
0.0
 11
27.090371
 21
8.627423
 31
0.0
  0
LINE
  5
91
100
AcDbEntity
  8
0
  6
CONTINUOUS
100
AcDbLine
 10
24.538113
 20
7.924923
 30
0.0
 11
24.538113
 21
8.70346
 31
0.0
  0
LINE
  5
92
100
AcDbEntity
  8
0
  6
CONTINUOUS
100
AcDbLine
 10
24.600113
 20
8.002423
 30
0.0
 11
24.600113
 21
8.627423
 31
0.0
  0
LINE
  5
93
100
AcDbEntity
  8
0
  6
CONTINUOUS
100
AcDbLine
 10
22.312371
 20
7.926167
 30
0.0
 11
22.312371
 21
8.70346
 31
0.0
  0
LINE
  5
94
100
AcDbEntity
  8
0
  6
CONTINUOUS
100
AcDbLine
 10
22.250371
 20
8.002423
 30
0.0
 11
22.250371
 21
8.627423
 31
0.0
  0
LINE
  5
95
100
AcDbEntity
  8
0
  6
CONTINUOUS
100
AcDbLine
 10
19.698113
 20
7.924923
 30
0.0
 11
19.698113
 21
8.70346
 31
0.0
  0
LINE
  5
96
100
AcDbEntity
  8
0
  6
CONTINUOUS
100
AcDbLine
 10
19.760113
 20
8.002423
 30
0.0
 11
19.760113
 21
8.627423
 31
0.0
  0
LINE
  5
97
100
AcDbEntity
  8
0
  6
CONTINUOUS
100
AcDbLine
 10
17.472371
 20
7.933813
 30
0.0
 11
17.472371
 21
8.70346
 31
0.0
  0
LINE
  5
98
100
AcDbEntity
  8
0
  6
CONTINUOUS
100
AcDbLine
 10
17.441371
 20
7.964813
 30
0.0
 11
17.441371
 21
8.664813
 31
0.0
  0
LINE
  5
99
100
AcDbEntity
  8
0
  6
CONTINUOUS
100
AcDbLine
 10
17.272371
 20
8.602813
 30
0.0
 11
17.272371
 21
8.026813
 31
0.0
  0
LINE
  5
9A
100
AcDbEntity
  8
0
  6
CONTINUOUS
100
AcDbLine
 10
19.760113
 20
8.002423
 30
0.0
 11
22.250371
 21
8.002423
 31
0.0
  0
LINE
  5
9B
100
AcDbEntity
  8
0
  6
CONTINUOUS
100
AcDbLine
 10
17.472371
 20
7.926167
 30
0.0
 11
18.254275
 21
7.925067
 31
0.0
  0
ARC
  5
9C
100
AcDbEntity
  8
0
  6
CONTINUOUS
100
AcDbCircle
 10
17.441371
 20
7.933813
 30
0.0
 40
0.031
100
AcDbArc
 50
0.0
 51
90.0
  0
LINE
  5
9D
100
AcDbEntity
  8
0
  6
CONTINUOUS
100
AcDbLine
 10
17.441371
 20
7.964813
 30
0.0
 11
17.334371
 21
7.964813
 31
0.0
  0
ARC
  5
9E
100
AcDbEntity
  8
0
  6
CONTINUOUS
100
AcDbCircle
 10
17.334371
 20
8.026813
 30
0.0
 40
0.062
100
AcDbArc
 50
180.0
 51
270.0
  0
LINE
  5
9F
100
AcDbEntity
  8
0
  6
CONTINUOUS
100
AcDbLine
 10
17.472371
 20
7.933813
 30
0.0
 11
17.472371
 21
7.926167
 31
0.0
  0
LINE
  5
A0
100
AcDbEntity
  8
0
  6
CONTINUOUS
100
AcDbLine
 10
18.919031
 20
7.924923
 30
0.0
 11
19.698113
 21
7.924923
 31
0.0
  0
CIRCLE
  5
A1
100
AcDbEntity
  8
0
  6
CONTINUOUS
100
AcDbCircle
 10
18.586592
 20
7.924923
 30
0.0
 40
0.230163
  0
ARC
  5
A2
100
AcDbEntity
  8
0
  6
CONTINUOUS
100
AcDbCircle
 10
18.586592
 20
7.924923
 30
0.0
 40
0.230163
100
AcDbArc
 50
200.581912
 51
339.393303
  0
ARC
  5
A3
100
AcDbEntity
  8
0
  6
CONTINUOUS
100
AcDbCircle
 10
18.254099
 20
7.800067
 30
0.0
 40
0.125
100
AcDbArc
 50
20.581912
 51
89.919405
  0
ARC
  5
A4
100
AcDbEntity
  8
0
  6
CONTINUOUS
100
AcDbCircle
 10
18.919031
 20
7.799923
 30
0.0
 40
0.125
100
AcDbArc
 50
90.0
 51
159.393303
  0
CIRCLE
  5
A5
100
AcDbEntity
  8
0
  6
CONTINUOUS
100
AcDbCircle
 10
18.586592
 20
7.924923
 30
0.0
 40
0.1
  0
ARC
  5
A6
100
AcDbEntity
  8
0
  6
CONTINUOUS
100
AcDbCircle
 10
19.760113
 20
7.940423
 30
0.0
 40
0.062
100
AcDbArc
 50
90.0
 51
180.0
  0
LINE
  5
A7
100
AcDbEntity
  8
0
  6
CONTINUOUS
100
AcDbLine
 10
19.698113
 20
7.924923
 30
0.0
 11
19.698113
 21
7.940423
 31
0.0
  0
LINE
  5
A8
100
AcDbEntity
  8
0
  6
CONTINUOUS
100
AcDbLine
 10
22.312371
 20
7.926167
 30
0.0
 11
23.094275
 21
7.925067
 31
0.0
  0
ARC
  5
A9
100
AcDbEntity
  8
0
  6
CONTINUOUS
100
AcDbCircle
 10
22.250371
 20
7.940423
 30
0.0
 40
0.062
100
AcDbArc
 50
0.0
 51
90.0
  0
LINE
  5
AA
100
AcDbEntity
  8
0
  6
CONTINUOUS
100
AcDbLine
 10
22.312371
 20
7.940423
 30
0.0
 11
22.312371
 21
7.926167
 31
0.0
  0
LINE
  5
AB
100
AcDbEntity
  8
0
  6
CONTINUOUS
100
AcDbLine
 10
23.759031
 20
7.924923
 30
0.0
 11
24.538113
 21
7.924923
 31
0.0
  0
CIRCLE
  5
AC
100
AcDbEntity
  8
0
  6
CONTINUOUS
100
AcDbCircle
 10
23.426592
 20
7.924923
 30
0.0
 40
0.230163
  0
ARC
  5
AD
100
AcDbEntity
  8
0
  6
CONTINUOUS
100
AcDbCircle
 10
23.426592
 20
7.924923
 30
0.0
 40
0.230163
100
AcDbArc
 50
200.581912
 51
339.393303
  0
CIRCLE
  5
AE
100
AcDbEntity
  8
0
  6
CONTINUOUS
100
AcDbCircle
 10
23.426592
 20
7.924923
 30
0.0
 40
0.1
  0
ARC
  5
AF
100
AcDbEntity
  8
0
  6
CONTINUOUS
100
AcDbCircle
 10
23.094099
 20
7.800067
 30
0.0
 40
0.125
100
AcDbArc
 50
20.581912
 51
89.919405
  0
ARC
  5
B0
100
AcDbEntity
  8
0
  6
CONTINUOUS
100
AcDbCircle
 10
23.759031
 20
7.799923
 30
0.0
 40
0.125
100
AcDbArc
 50
90.0
 51
159.393303
  0
ARC
  5
B1
100
AcDbEntity
  8
0
  6
CONTINUOUS
100
AcDbCircle
 10
24.600113
 20
7.940423
 30
0.0
 40
0.062
100
AcDbArc
 50
90.0
 51
180.0
  0
LINE
  5
B2
100
AcDbEntity
  8
0
  6
CONTINUOUS
100
AcDbLine
 10
24.538113
 20
7.924923
 30
0.0
 11
24.538113
 21
7.940423
 31
0.0
  0
LINE
  5
B3
100
AcDbEntity
  8
0
  6
CONTINUOUS
100
AcDbLine
 10
19.760113
 20
8.627423
 30
0.0
 11
22.250371
 21
8.627423
 31
0.0
  0
LINE
  5
B4
100
AcDbEntity
  8
0
  6
CONTINUOUS
100
AcDbLine
 10
19.698113
 20
8.70346
 30
0.0
 11
17.472371
 21
8.70346
 31
0.0
  0
ARC
  5
B5
100
AcDbEntity
  8
0
  6
CONTINUOUS
100
AcDbCircle
 10
17.441371
 20
8.695813
 30
0.0
 40
0.031
100
AcDbArc
 50
270.0
 51
0.0
  0
ARC
  5
B6
100
AcDbEntity
  8
0
  6
CONTINUOUS
100
AcDbCircle
 10
17.334371
 20
8.602813
 30
0.0
 40
0.062
100
AcDbArc
 50
90.0
 51
180.0
  0
LINE
  5
B7
100
AcDbEntity
  8
0
  6
CONTINUOUS
100
AcDbLine
 10
17.441371
 20
8.664813
 30
0.0
 11
17.334371
 21
8.664813
 31
0.0
  0
LINE
  5
B8
100
AcDbEntity
  8
0
  6
CONTINUOUS
100
AcDbLine
 10
17.472371
 20
8.70346
 30
0.0
 11
17.472371
 21
8.695813
 31
0.0
  0
ARC
  5
B9
100
AcDbEntity
  8
0
  6
CONTINUOUS
100
AcDbCircle
 10
19.760113
 20
8.689423
 30
0.0
 40
0.062
100
AcDbArc
 50
180.0
 51
270.0
  0
LINE
  5
BA
100
AcDbEntity
  8
0
  6
CONTINUOUS
100
AcDbLine
 10
19.698113
 20
8.70346
 30
0.0
 11
19.698113
 21
8.689423
 31
0.0
  0
LINE
  5
BB
100
AcDbEntity
  8
0
  6
CONTINUOUS
100
AcDbLine
 10
24.538113
 20
8.70346
 30
0.0
 11
22.312371
 21
8.70346
 31
0.0
  0
ARC
  5
BC
100
AcDbEntity
  8
0
  6
CONTINUOUS
100
AcDbCircle
 10
22.250371
 20
8.689423
 30
0.0
 40
0.062
100
AcDbArc
 50
270.0
 51
0.0
  0
LINE
  5
BD
100
AcDbEntity
  8
0
  6
CONTINUOUS
100
AcDbLine
 10
22.312371
 20
8.70346
 30
0.0
 11
22.312371
 21
8.689423
 31
0.0
  0
ARC
  5
BE
100
AcDbEntity
  8
0
  6
CONTINUOUS
100
AcDbCircle
 10
24.600113
 20
8.689423
 30
0.0
 40
0.062
100
AcDbArc
 50
180.0
 51
270.0
  0
LINE
  5
BF
100
AcDbEntity
  8
0
  6
CONTINUOUS
100
AcDbLine
 10
24.538113
 20
8.70346
 30
0.0
 11
24.538113
 21
8.689423
 31
0.0
  0
LINE
  5
C0
100
AcDbEntity
  8
0
  6
CONTINUOUS
100
AcDbLine
 10
34.219236
 20
7.924923
 30
0.0
 11
34.218113
 21
8.70346
 31
0.0
  0
LINE
  5
C1
100
AcDbEntity
  8
0
  6
CONTINUOUS
100
AcDbLine
 10
34.249113
 20
7.964192
 30
0.0
 11
34.249113
 21
8.664192
 31
0.0
  0
LINE
  5
C2
100
AcDbEntity
  8
0
  6
CONTINUOUS
100
AcDbLine
 10
34.418113
 20
8.026192
 30
0.0
 11
34.418113
 21
8.602192
 31
0.0
  0
LINE
  5
C3
100
AcDbEntity
  8
0
  6
CONTINUOUS
100
AcDbLine
 10
31.992371
 20
7.926167
 30
0.0
 11
31.992371
 21
8.70346
 31
0.0
  0
LINE
  5
C4
100
AcDbEntity
  8
0
  6
CONTINUOUS
100
AcDbLine
 10
31.930371
 20
8.002423
 30
0.0
 11
31.930371
 21
8.627423
 31
0.0
  0
LINE
  5
C5
100
AcDbEntity
  8
0
  6
CONTINUOUS
100
AcDbLine
 10
29.378113
 20
7.924923
 30
0.0
 11
29.378113
 21
8.70346
 31
0.0
  0
LINE
  5
C6
100
AcDbEntity
  8
0
  6
CONTINUOUS
100
AcDbLine
 10
29.440113
 20
8.002423
 30
0.0
 11
29.440113
 21
8.627423
 31
0.0
  0
LINE
  5
C7
100
AcDbEntity
  8
0
  6
CONTINUOUS
100
AcDbLine
 10
27.152371
 20
7.926167
 30
0.0
 11
27.152371
 21
8.70346
 31
0.0
  0
LINE
  5
C8
100
AcDbEntity
  8
0
  6
CONTINUOUS
100
AcDbLine
 10
27.090371
 20
8.002423
 30
0.0
 11
27.090371
 21
8.627423
 31
0.0
  0
LINE
  5
C9
100
AcDbEntity
  8
0
  6
CONTINUOUS
100
AcDbLine
 10
29.440113
 20
8.002423
 30
0.0
 11
31.930371
 21
8.002423
 31
0.0
  0
CIRCLE
  5
CA
100
AcDbEntity
  8
0
  6
CONTINUOUS
100
AcDbCircle
 10
28.266592
 20
7.924923
 30
0.0
 40
0.230163
  0
ARC
  5
CB
100
AcDbEntity
  8
0
  6
CONTINUOUS
100
AcDbCircle
 10
28.266592
 20
7.924923
 30
0.0
 40
0.230163
100
AcDbArc
 50
200.581912
 51
339.393303
  0
LINE
  5
CC
100
AcDbEntity
  8
0
  6
CONTINUOUS
100
AcDbLine
 10
27.152371
 20
7.926167
 30
0.0
 11
27.934275
 21
7.925067
 31
0.0
  0
ARC
  5
CD
100
AcDbEntity
  8
0
  6
CONTINUOUS
100
AcDbCircle
 10
27.090371
 20
7.940423
 30
0.0
 40
0.062
100
AcDbArc
 50
0.0
 51
90.0
  0
LINE
  5
CE
100
AcDbEntity
  8
0
  6
CONTINUOUS
100
AcDbLine
 10
27.152371
 20
7.940423
 30
0.0
 11
27.152371
 21
7.926167
 31
0.0
  0
ARC
  5
CF
100
AcDbEntity
  8
0
  6
CONTINUOUS
100
AcDbCircle
 10
27.934099
 20
7.800067
 30
0.0
 40
0.125
100
AcDbArc
 50
20.581912
 51
89.919405
  0
ARC
  5
D0
100
AcDbEntity
  8
0
  6
CONTINUOUS
100
AcDbCircle
 10
29.440113
 20
7.940423
 30
0.0
 40
0.062
100
AcDbArc
 50
90.0
 51
180.0
  0
LINE
  5
D1
100
AcDbEntity
  8
0
  6
CONTINUOUS
100
AcDbLine
 10
28.599031
 20
7.924923
 30
0.0
 11
29.378113
 21
7.924923
 31
0.0
  0
ARC
  5
D2
100
AcDbEntity
  8
0
  6
CONTINUOUS
100
AcDbCircle
 10
28.599031
 20
7.799923
 30
0.0
 40
0.125
100
AcDbArc
 50
90.0
 51
159.393303
  0
CIRCLE
  5
D3
100
AcDbEntity
  8
0
  6
CONTINUOUS
100
AcDbCircle
 10
28.266592
 20
7.924923
 30
0.0
 40
0.1
  0
LINE
  5
D4
100
AcDbEntity
  8
0
  6
CONTINUOUS
100
AcDbLine
 10
29.378113
 20
7.924923
 30
0.0
 11
29.378113
 21
7.940423
 31
0.0
  0
CIRCLE
  5
D5
100
AcDbEntity
  8
0
  6
CONTINUOUS
100
AcDbCircle
 10
33.106592
 20
7.924923
 30
0.0
 40
0.230163
  0
ARC
  5
D6
100
AcDbEntity
  8
0
  6
CONTINUOUS
100
AcDbCircle
 10
33.106592
 20
7.924923
 30
0.0
 40
0.230163
100
AcDbArc
 50
200.581912
 51
339.393303
  0
ARC
  5
D7
100
AcDbEntity
  8
0
  6
CONTINUOUS
100
AcDbCircle
 10
31.930371
 20
7.940423
 30
0.0
 40
0.062
100
AcDbArc
 50
0.0
 51
90.0
  0
LINE
  5
D8
100
AcDbEntity
  8
0
  6
CONTINUOUS
100
AcDbLine
 10
31.992371
 20
7.926167
 30
0.0
 11
32.774275
 21
7.925067
 31
0.0
  0
LINE
  5
D9
100
AcDbEntity
  8
0
  6
CONTINUOUS
100
AcDbLine
 10
31.992371
 20
7.940423
 30
0.0
 11
31.992371
 21
7.926167
 31
0.0
  0
CIRCLE
  5
DA
100
AcDbEntity
  8
0
  6
CONTINUOUS
100
AcDbCircle
 10
33.106592
 20
7.924923
 30
0.0
 40
0.1
  0
ARC
  5
DB
100
AcDbEntity
  8
0
  6
CONTINUOUS
100
AcDbCircle
 10
32.774099
 20
7.800067
 30
0.0
 40
0.125
100
AcDbArc
 50
20.581912
 51
89.919405
  0
LINE
  5
DC
100
AcDbEntity
  8
0
  6
CONTINUOUS
100
AcDbLine
 10
33.439031
 20
7.924923
 30
0.0
 11
34.219236
 21
7.924923
 31
0.0
  0
ARC
  5
DD
100
AcDbEntity
  8
0
  6
CONTINUOUS
100
AcDbCircle
 10
33.439031
 20
7.799923
 30
0.0
 40
0.125
100
AcDbArc
 50
90.0
 51
159.393303
  0
ARC
  5
DE
100
AcDbEntity
  8
0
  6
CONTINUOUS
100
AcDbCircle
 10
34.249113
 20
7.933192
 30
0.0
 40
0.031
100
AcDbArc
 50
90.0
 51
195.46963
  0
LINE
  5
DF
100
AcDbEntity
  8
0
  6
CONTINUOUS
100
AcDbLine
 10
34.356113
 20
7.964192
 30
0.0
 11
34.249113
 21
7.964192
 31
0.0
  0
ARC
  5
E0
100
AcDbEntity
  8
0
  6
CONTINUOUS
100
AcDbCircle
 10
34.356113
 20
8.026192
 30
0.0
 40
0.062
100
AcDbArc
 50
270.0
 51
0.0
  0
LINE
  5
E1
100
AcDbEntity
  8
0
  6
CONTINUOUS
100
AcDbLine
 10
29.440113
 20
8.627423
 30
0.0
 11
31.930371
 21
8.627423
 31
0.0
  0
LINE
  5
E2
100
AcDbEntity
  8
0
  6
CONTINUOUS
100
AcDbLine
 10
29.378113
 20
8.70346
 30
0.0
 11
27.152371
 21
8.70346
 31
0.0
  0
ARC
  5
E3
100
AcDbEntity
  8
0
  6
CONTINUOUS
100
AcDbCircle
 10
27.090371
 20
8.689423
 30
0.0
 40
0.062
100
AcDbArc
 50
270.0
 51
0.0
  0
LINE
  5
E4
100
AcDbEntity
  8
0
  6
CONTINUOUS
100
AcDbLine
 10
27.152371
 20
8.70346
 30
0.0
 11
27.152371
 21
8.689423
 31
0.0
  0
ARC
  5
E5
100
AcDbEntity
  8
0
  6
CONTINUOUS
100
AcDbCircle
 10
29.440113
 20
8.689423
 30
0.0
 40
0.062
100
AcDbArc
 50
180.0
 51
270.0
  0
LINE
  5
E6
100
AcDbEntity
  8
0
  6
CONTINUOUS
100
AcDbLine
 10
29.378113
 20
8.70346
 30
0.0
 11
29.378113
 21
8.689423
 31
0.0
  0
LINE
  5
E7
100
AcDbEntity
  8
0
  6
CONTINUOUS
100
AcDbLine
 10
34.218113
 20
8.70346
 30
0.0
 11
31.992371
 21
8.70346
 31
0.0
  0
ARC
  5
E8
100
AcDbEntity
  8
0
  6
CONTINUOUS
100
AcDbCircle
 10
31.930371
 20
8.689423
 30
0.0
 40
0.062
100
AcDbArc
 50
270.0
 51
0.0
  0
LINE
  5
E9
100
AcDbEntity
  8
0
  6
CONTINUOUS
100
AcDbLine
 10
31.992371
 20
8.70346
 30
0.0
 11
31.992371
 21
8.689423
 31
0.0
  0
ARC
  5
EA
100
AcDbEntity
  8
0
  6
CONTINUOUS
100
AcDbCircle
 10
34.249113
 20
8.695192
 30
0.0
 40
0.031
100
AcDbArc
 50
180.0
 51
270.0
  0
LINE
  5
EB
100
AcDbEntity
  8
0
  6
CONTINUOUS
100
AcDbLine
 10
34.218113
 20
8.695192
 30
0.0
 11
34.218113
 21
8.70346
 31
0.0
  0
LINE
  5
EC
100
AcDbEntity
  8
0
  6
CONTINUOUS
100
AcDbLine
 10
34.218113
 20
8.70346
 30
0.0
 11
34.218113
 21
8.689423
 31
0.0
  0
ARC
  5
ED
100
AcDbEntity
  8
0
  6
CONTINUOUS
100
AcDbCircle
 10
34.356113
 20
8.602192
 30
0.0
 40
0.062
100
AcDbArc
 50
0.0
 51
90.0
  0
LINE
  5
EE
100
AcDbEntity
  8
0
  6
CONTINUOUS
100
AcDbLine
 10
34.356113
 20
8.664192
 30
0.0
 11
34.249113
 21
8.664192
 31
0.0
  0
LINE
  5
F0
100
AcDbEntity
  8
0
  6
CONTINUOUS
100
AcDbLine
 10
19.760113
 20
-2.909335
 30
0.0
 11
22.250371
 21
-2.909335
 31
0.0
  0
LINE
  5
F1
100
AcDbEntity
  8
0
  6
CONTINUOUS
100
AcDbLine
 10
19.760113
 20
-2.284335
 30
0.0
 11
22.250371
 21
-2.284335
 31
0.0
  0
CIRCLE
  5
F2
100
AcDbEntity
  8
0
  6
CONTINUOUS
100
AcDbCircle
 10
18.586592
 20
-2.206835
 30
0.0
 40
0.1
  0
ARC
  5
F3
100
AcDbEntity
  8
0
  6
CONTINUOUS
100
AcDbCircle
 10
18.919031
 20
-2.081835
 30
0.0
 40
0.125
100
AcDbArc
 50
200.606697
 51
270.0
  0
ARC
  5
F4
100
AcDbEntity
  8
0
  6
CONTINUOUS
100
AcDbCircle
 10
18.254099
 20
-2.081979
 30
0.0
 40
0.125
100
AcDbArc
 50
270.080595
 51
339.418088
  0
CIRCLE
  5
F5
100
AcDbEntity
  8
0
  6
CONTINUOUS
100
AcDbCircle
 10
18.586592
 20
-2.206835
 30
0.0
 40
0.230163
  0
ARC
  5
F6
100
AcDbEntity
  8
0
  6
CONTINUOUS
100
AcDbCircle
 10
18.586592
 20
-2.206835
 30
0.0
 40
0.230163
100
AcDbArc
 50
20.606697
 51
159.418088
  0
LINE
  5
F7
100
AcDbEntity
  8
0
  6
CONTINUOUS
100
AcDbLine
 10
19.698113
 20
-2.985372
 30
0.0
 11
17.472371
 21
-2.985372
 31
0.0
  0
LINE
  5
F8
100
AcDbEntity
  8
0
  6
CONTINUOUS
100
AcDbLine
 10
17.472371
 20
-2.208078
 30
0.0
 11
18.254275
 21
-2.206978
 31
0.0
  0
ARC
  5
F9
100
AcDbEntity
  8
0
  6
CONTINUOUS
100
AcDbCircle
 10
17.334371
 20
-2.884725
 30
0.0
 40
0.062
100
AcDbArc
 50
180.0
 51
270.0
  0
LINE
  5
FA
100
AcDbEntity
  8
0
  6
CONTINUOUS
100
AcDbLine
 10
17.441371
 20
-2.246725
 30
0.0
 11
17.441371
 21
-2.946725
 31
0.0
  0
LINE
  5
FB
100
AcDbEntity
  8
0
  6
CONTINUOUS
100
AcDbLine
 10
17.472371
 20
-2.215725
 30
0.0
 11
17.472371
 21
-2.985372
 31
0.0
  0
LINE
  5
FC
100
AcDbEntity
  8
0
  6
CONTINUOUS
100
AcDbLine
 10
17.441371
 20
-2.246725
 30
0.0
 11
17.334371
 21
-2.246725
 31
0.0
  0
LINE
  5
FD
100
AcDbEntity
  8
0
  6
CONTINUOUS
100
AcDbLine
 10
17.272371
 20
-2.884725
 30
0.0
 11
17.272371
 21
-2.308725
 31
0.0
  0
ARC
  5
FE
100
AcDbEntity
  8
0
  6
CONTINUOUS
100
AcDbCircle
 10
17.334371
 20
-2.308725
 30
0.0
 40
0.062
100
AcDbArc
 50
90.0
 51
180.0
  0
LINE
  5
FF
100
AcDbEntity
  8
0
  6
CONTINUOUS
100
AcDbLine
 10
17.472371
 20
-2.215725
 30
0.0
 11
17.472371
 21
-2.208078
 31
0.0
  0
ARC
  5
100
100
AcDbEntity
  8
0
  6
CONTINUOUS
100
AcDbCircle
 10
17.441371
 20
-2.215725
 30
0.0
 40
0.031
100
AcDbArc
 50
270.0
 51
0.0
  0
LINE
  5
101
100
AcDbEntity
  8
0
  6
CONTINUOUS
100
AcDbLine
 10
17.441371
 20
-2.946725
 30
0.0
 11
17.334371
 21
-2.946725
 31
0.0
  0
LINE
  5
102
100
AcDbEntity
  8
0
  6
CONTINUOUS
100
AcDbLine
 10
17.472371
 20
-2.985372
 30
0.0
 11
17.472371
 21
-2.977725
 31
0.0
  0
ARC
  5
103
100
AcDbEntity
  8
0
  6
CONTINUOUS
100
AcDbCircle
 10
17.441371
 20
-2.977725
 30
0.0
 40
0.031
100
AcDbArc
 50
360.0
 51
90.0
  0
ARC
  5
104
100
AcDbEntity
  8
0
  6
CONTINUOUS
100
AcDbCircle
 10
19.760113
 20
-2.971335
 30
0.0
 40
0.062
100
AcDbArc
 50
90.0
 51
180.0
  0
ARC
  5
105
100
AcDbEntity
  8
0
  6
CONTINUOUS
100
AcDbCircle
 10
19.760113
 20
-2.222335
 30
0.0
 40
0.062
100
AcDbArc
 50
180.0
 51
270.0
  0
LINE
  5
106
100
AcDbEntity
  8
0
  6
CONTINUOUS
100
AcDbLine
 10
19.698113
 20
-2.206835
 30
0.0
 11
19.698113
 21
-2.985372
 31
0.0
  0
LINE
  5
107
100
AcDbEntity
  8
0
  6
CONTINUOUS
100
AcDbLine
 10
18.919031
 20
-2.206835
 30
0.0
 11
19.698113
 21
-2.206835
 31
0.0
  0
LINE
  5
108
100
AcDbEntity
  8
0
  6
CONTINUOUS
100
AcDbLine
 10
19.698113
 20
-2.206835
 30
0.0
 11
19.698113
 21
-2.222335
 31
0.0
  0
LINE
  5
109
100
AcDbEntity
  8
0
  6
CONTINUOUS
100
AcDbLine
 10
19.698113
 20
-2.985372
 30
0.0
 11
19.698113
 21
-2.971335
 31
0.0
  0
LINE
  5
10A
100
AcDbEntity
  8
0
  6
CONTINUOUS
100
AcDbLine
 10
19.760113
 20
-2.284335
 30
0.0
 11
19.760113
 21
-2.909335
 31
0.0
  0
LINE
  5
10B
100
AcDbEntity
  8
0
  6
CONTINUOUS
100
AcDbLine
 10
29.378113
 20
-2.985372
 30
0.0
 11
27.152371
 21
-2.985372
 31
0.0
  0
ARC
  5
10C
100
AcDbEntity
  8
0
  6
CONTINUOUS
100
AcDbCircle
 10
28.266592
 20
-2.206835
 30
0.0
 40
0.230163
100
AcDbArc
 50
20.606697
 51
159.418088
  0
CIRCLE
  5
10D
100
AcDbEntity
  8
0
  6
CONTINUOUS
100
AcDbCircle
 10
28.266592
 20
-2.206835
 30
0.0
 40
0.230163
  0
LINE
  5
10E
100
AcDbEntity
  8
0
  6
CONTINUOUS
100
AcDbLine
 10
24.538113
 20
-2.985372
 30
0.0
 11
22.312371
 21
-2.985372
 31
0.0
  0
LINE
  5
10F
100
AcDbEntity
  8
0
  6
CONTINUOUS
100
AcDbLine
 10
23.759031
 20
-2.206835
 30
0.0
 11
24.538113
 21
-2.206835
 31
0.0
  0
ARC
  5
110
100
AcDbEntity
  8
0
  6
CONTINUOUS
100
AcDbCircle
 10
23.759031
 20
-2.081835
 30
0.0
 40
0.125
100
AcDbArc
 50
200.606697
 51
270.0
  0
ARC
  5
111
100
AcDbEntity
  8
0
  6
CONTINUOUS
100
AcDbCircle
 10
23.094099
 20
-2.081979
 30
0.0
 40
0.125
100
AcDbArc
 50
270.080595
 51
339.418088
  0
CIRCLE
  5
112
100
AcDbEntity
  8
0
  6
CONTINUOUS
100
AcDbCircle
 10
23.426592
 20
-2.206835
 30
0.0
 40
0.1
  0
CIRCLE
  5
113
100
AcDbEntity
  8
0
  6
CONTINUOUS
100
AcDbCircle
 10
23.426592
 20
-2.206835
 30
0.0
 40
0.230163
  0
ARC
  5
114
100
AcDbEntity
  8
0
  6
CONTINUOUS
100
AcDbCircle
 10
23.426592
 20
-2.206835
 30
0.0
 40
0.230163
100
AcDbArc
 50
20.606697
 51
159.418088
  0
LINE
  5
115
100
AcDbEntity
  8
0
  6
CONTINUOUS
100
AcDbLine
 10
22.312371
 20
-2.208078
 30
0.0
 11
23.094275
 21
-2.206978
 31
0.0
  0
ARC
  5
116
100
AcDbEntity
  8
0
  6
CONTINUOUS
100
AcDbCircle
 10
22.250371
 20
-2.971335
 30
0.0
 40
0.062
100
AcDbArc
 50
0.0
 51
90.0
  0
LINE
  5
117
100
AcDbEntity
  8
0
  6
CONTINUOUS
100
AcDbLine
 10
22.250371
 20
-2.284335
 30
0.0
 11
22.250371
 21
-2.909335
 31
0.0
  0
LINE
  5
118
100
AcDbEntity
  8
0
  6
CONTINUOUS
100
AcDbLine
 10
22.312371
 20
-2.208078
 30
0.0
 11
22.312371
 21
-2.985372
 31
0.0
  0
ARC
  5
119
100
AcDbEntity
  8
0
  6
CONTINUOUS
100
AcDbCircle
 10
22.250371
 20
-2.222335
 30
0.0
 40
0.062
100
AcDbArc
 50
270.0
 51
0.0
  0
LINE
  5
11A
100
AcDbEntity
  8
0
  6
CONTINUOUS
100
AcDbLine
 10
22.312371
 20
-2.222335
 30
0.0
 11
22.312371
 21
-2.208078
 31
0.0
  0
LINE
  5
11B
100
AcDbEntity
  8
0
  6
CONTINUOUS
100
AcDbLine
 10
22.312371
 20
-2.985372
 30
0.0
 11
22.312371
 21
-2.971335
 31
0.0
  0
ARC
  5
11C
100
AcDbEntity
  8
0
  6
CONTINUOUS
100
AcDbCircle
 10
27.934099
 20
-2.081979
 30
0.0
 40
0.125
100
AcDbArc
 50
270.080595
 51
339.418088
  0
LINE
  5
11D
100
AcDbEntity
  8
0
  6
CONTINUOUS
100
AcDbLine
 10
24.600113
 20
-2.909335
 30
0.0
 11
27.090371
 21
-2.909335
 31
0.0
  0
LINE
  5
11E
100
AcDbEntity
  8
0
  6
CONTINUOUS
100
AcDbLine
 10
24.600113
 20
-2.284335
 30
0.0
 11
27.090371
 21
-2.284335
 31
0.0
  0
ARC
  5
11F
100
AcDbEntity
  8
0
  6
CONTINUOUS
100
AcDbCircle
 10
24.600113
 20
-2.971335
 30
0.0
 40
0.062
100
AcDbArc
 50
90.0
 51
180.0
  0
LINE
  5
120
100
AcDbEntity
  8
0
  6
CONTINUOUS
100
AcDbLine
 10
24.600113
 20
-2.284335
 30
0.0
 11
24.600113
 21
-2.909335
 31
0.0
  0
LINE
  5
121
100
AcDbEntity
  8
0
  6
CONTINUOUS
100
AcDbLine
 10
24.538113
 20
-2.206835
 30
0.0
 11
24.538113
 21
-2.985372
 31
0.0
  0
LINE
  5
122
100
AcDbEntity
  8
0
  6
CONTINUOUS
100
AcDbLine
 10
24.538113
 20
-2.206835
 30
0.0
 11
24.538113
 21
-2.222335
 31
0.0
  0
ARC
  5
123
100
AcDbEntity
  8
0
  6
CONTINUOUS
100
AcDbCircle
 10
24.600113
 20
-2.222335
 30
0.0
 40
0.062
100
AcDbArc
 50
180.0
 51
270.0
  0
LINE
  5
124
100
AcDbEntity
  8
0
  6
CONTINUOUS
100
AcDbLine
 10
24.538113
 20
-2.985372
 30
0.0
 11
24.538113
 21
-2.971335
 31
0.0
  0
LINE
  5
125
100
AcDbEntity
  8
0
  6
CONTINUOUS
100
AcDbLine
 10
27.152371
 20
-2.208078
 30
0.0
 11
27.934275
 21
-2.206978
 31
0.0
  0
ARC
  5
126
100
AcDbEntity
  8
0
  6
CONTINUOUS
100
AcDbCircle
 10
27.090371
 20
-2.971335
 30
0.0
 40
0.062
100
AcDbArc
 50
0.0
 51
90.0
  0
LINE
  5
127
100
AcDbEntity
  8
0
  6
CONTINUOUS
100
AcDbLine
 10
27.090371
 20
-2.284335
 30
0.0
 11
27.090371
 21
-2.909335
 31
0.0
  0
LINE
  5
128
100
AcDbEntity
  8
0
  6
CONTINUOUS
100
AcDbLine
 10
27.152371
 20
-2.208078
 30
0.0
 11
27.152371
 21
-2.985372
 31
0.0
  0
ARC
  5
129
100
AcDbEntity
  8
0
  6
CONTINUOUS
100
AcDbCircle
 10
27.090371
 20
-2.222335
 30
0.0
 40
0.062
100
AcDbArc
 50
270.0
 51
0.0
  0
LINE
  5
12A
100
AcDbEntity
  8
0
  6
CONTINUOUS
100
AcDbLine
 10
27.152371
 20
-2.222335
 30
0.0
 11
27.152371
 21
-2.208078
 31
0.0
  0
LINE
  5
12B
100
AcDbEntity
  8
0
  6
CONTINUOUS
100
AcDbLine
 10
27.152371
 20
-2.985372
 30
0.0
 11
27.152371
 21
-2.971335
 31
0.0
  0
LINE
  5
12C
100
AcDbEntity
  8
0
  6
CONTINUOUS
100
AcDbLine
 10
29.440113
 20
-2.909335
 30
0.0
 11
31.930371
 21
-2.909335
 31
0.0
  0
LINE
  5
12D
100
AcDbEntity
  8
0
  6
CONTINUOUS
100
AcDbLine
 10
29.440113
 20
-2.284335
 30
0.0
 11
31.930371
 21
-2.284335
 31
0.0
  0
CIRCLE
  5
12E
100
AcDbEntity
  8
0
  6
CONTINUOUS
100
AcDbCircle
 10
28.266592
 20
-2.206835
 30
0.0
 40
0.1
  0
ARC
  5
12F
100
AcDbEntity
  8
0
  6
CONTINUOUS
100
AcDbCircle
 10
28.599031
 20
-2.081835
 30
0.0
 40
0.125
100
AcDbArc
 50
200.606697
 51
270.0
  0
LINE
  5
130
100
AcDbEntity
  8
0
  6
CONTINUOUS
100
AcDbLine
 10
28.599031
 20
-2.206835
 30
0.0
 11
29.378113
 21
-2.206835
 31
0.0
  0
ARC
  5
131
100
AcDbEntity
  8
0
  6
CONTINUOUS
100
AcDbCircle
 10
29.440113
 20
-2.971335
 30
0.0
 40
0.062
100
AcDbArc
 50
90.0
 51
180.0
  0
LINE
  5
132
100
AcDbEntity
  8
0
  6
CONTINUOUS
100
AcDbLine
 10
29.440113
 20
-2.284335
 30
0.0
 11
29.440113
 21
-2.909335
 31
0.0
  0
LINE
  5
133
100
AcDbEntity
  8
0
  6
CONTINUOUS
100
AcDbLine
 10
29.378113
 20
-2.206835
 30
0.0
 11
29.378113
 21
-2.985372
 31
0.0
  0
LINE
  5
134
100
AcDbEntity
  8
0
  6
CONTINUOUS
100
AcDbLine
 10
29.378113
 20
-2.206835
 30
0.0
 11
29.378113
 21
-2.222335
 31
0.0
  0
ARC
  5
135
100
AcDbEntity
  8
0
  6
CONTINUOUS
100
AcDbCircle
 10
29.440113
 20
-2.222335
 30
0.0
 40
0.062
100
AcDbArc
 50
180.0
 51
270.0
  0
LINE
  5
136
100
AcDbEntity
  8
0
  6
CONTINUOUS
100
AcDbLine
 10
29.378113
 20
-2.985372
 30
0.0
 11
29.378113
 21
-2.971335
 31
0.0
  0
ARC
  5
137
100
AcDbEntity
  8
0
  6
CONTINUOUS
100
AcDbCircle
 10
33.439031
 20
-2.081835
 30
0.0
 40
0.125
100
AcDbArc
 50
200.606697
 51
270.0
  0
ARC
  5
138
100
AcDbEntity
  8
0
  6
CONTINUOUS
100
AcDbCircle
 10
32.774099
 20
-2.081979
 30
0.0
 40
0.125
100
AcDbArc
 50
270.080595
 51
339.418088
  0
CIRCLE
  5
139
100
AcDbEntity
  8
0
  6
CONTINUOUS
100
AcDbCircle
 10
33.106592
 20
-2.206835
 30
0.0
 40
0.1
  0
CIRCLE
  5
13A
100
AcDbEntity
  8
0
  6
CONTINUOUS
100
AcDbCircle
 10
33.106592
 20
-2.206835
 30
0.0
 40
0.230163
  0
ARC
  5
13B
100
AcDbEntity
  8
0
  6
CONTINUOUS
100
AcDbCircle
 10
33.106592
 20
-2.206835
 30
0.0
 40
0.230163
100
AcDbArc
 50
20.606697
 51
159.418088
  0
LINE
  5
13C
100
AcDbEntity
  8
0
  6
CONTINUOUS
100
AcDbLine
 10
34.218113
 20
-2.985372
 30
0.0
 11
31.992371
 21
-2.985372
 31
0.0
  0
LINE
  5
13D
100
AcDbEntity
  8
0
  6
CONTINUOUS
100
AcDbLine
 10
33.439031
 20
-2.206835
 30
0.0
 11
34.219236
 21
-2.206835
 31
0.0
  0
ARC
  5
13E
100
AcDbEntity
  8
0
  6
CONTINUOUS
100
AcDbCircle
 10
31.930371
 20
-2.971335
 30
0.0
 40
0.062
100
AcDbArc
 50
0.0
 51
90.0
  0
LINE
  5
13F
100
AcDbEntity
  8
0
  6
CONTINUOUS
100
AcDbLine
 10
31.930371
 20
-2.284335
 30
0.0
 11
31.930371
 21
-2.909335
 31
0.0
  0
LINE
  5
140
100
AcDbEntity
  8
0
  6
CONTINUOUS
100
AcDbLine
 10
31.992371
 20
-2.208078
 30
0.0
 11
31.992371
 21
-2.985372
 31
0.0
  0
LINE
  5
141
100
AcDbEntity
  8
0
  6
CONTINUOUS
100
AcDbLine
 10
31.992371
 20
-2.208078
 30
0.0
 11
32.774275
 21
-2.206978
 31
0.0
  0
LINE
  5
142
100
AcDbEntity
  8
0
  6
CONTINUOUS
100
AcDbLine
 10
31.992371
 20
-2.222335
 30
0.0
 11
31.992371
 21
-2.208078
 31
0.0
  0
ARC
  5
143
100
AcDbEntity
  8
0
  6
CONTINUOUS
100
AcDbCircle
 10
31.930371
 20
-2.222335
 30
0.0
 40
0.062
100
AcDbArc
 50
270.0
 51
0.0
  0
LINE
  5
144
100
AcDbEntity
  8
0
  6
CONTINUOUS
100
AcDbLine
 10
31.992371
 20
-2.985372
 30
0.0
 11
31.992371
 21
-2.971335
 31
0.0
  0
ARC
  5
145
100
AcDbEntity
  8
0
  6
CONTINUOUS
100
AcDbCircle
 10
34.356113
 20
-2.884103
 30
0.0
 40
0.062
100
AcDbArc
 50
270.0
 51
0.0
  0
LINE
  5
146
100
AcDbEntity
  8
0
  6
CONTINUOUS
100
AcDbLine
 10
34.249113
 20
-2.246103
 30
0.0
 11
34.249113
 21
-2.946103
 31
0.0
  0
LINE
  5
147
100
AcDbEntity
  8
0
  6
CONTINUOUS
100
AcDbLine
 10
34.219236
 20
-2.206835
 30
0.0
 11
34.218113
 21
-2.985372
 31
0.0
  0
LINE
  5
148
100
AcDbEntity
  8
0
  6
CONTINUOUS
100
AcDbLine
 10
34.356113
 20
-2.246103
 30
0.0
 11
34.249113
 21
-2.246103
 31
0.0
  0
ARC
  5
149
100
AcDbEntity
  8
0
  6
CONTINUOUS
100
AcDbCircle
 10
34.249113
 20
-2.215103
 30
0.0
 40
0.031
100
AcDbArc
 50
164.53037
 51
270.0
  0
LINE
  5
14A
100
AcDbEntity
  8
0
  6
CONTINUOUS
100
AcDbLine
 10
34.418113
 20
-2.308103
 30
0.0
 11
34.418113
 21
-2.884103
 31
0.0
  0
ARC
  5
14B
100
AcDbEntity
  8
0
  6
CONTINUOUS
100
AcDbCircle
 10
34.356113
 20
-2.308103
 30
0.0
 40
0.062
100
AcDbArc
 50
0.0
 51
90.0
  0
LINE
  5
14C
100
AcDbEntity
  8
0
  6
CONTINUOUS
100
AcDbLine
 10
34.356113
 20
-2.946103
 30
0.0
 11
34.249113
 21
-2.946103
 31
0.0
  0
LINE
  5
14D
100
AcDbEntity
  8
0
  6
CONTINUOUS
100
AcDbLine
 10
34.218113
 20
-2.985372
 30
0.0
 11
34.218113
 21
-2.971335
 31
0.0
  0
LINE
  5
14E
100
AcDbEntity
  8
0
  6
CONTINUOUS
100
AcDbLine
 10
34.218113
 20
-2.977103
 30
0.0
 11
34.218113
 21
-2.985372
 31
0.0
  0
ARC
  5
14F
100
AcDbEntity
  8
0
  6
CONTINUOUS
100
AcDbCircle
 10
34.249113
 20
-2.977103
 30
0.0
 40
0.031
100
AcDbArc
 50
90.0
 51
180.0
  0
LINE
  5
150
100
AcDbEntity
  8
0
100
AcDbLine
 10
14.272371
 20
3.921544
 30
0.0
 11
12.147371
 21
3.921544
 31
0.0
  0
LINE
  5
151
100
AcDbEntity
  8
0
100
AcDbLine
 10
12.147371
 20
3.921544
 30
0.0
 11
12.147371
 21
1.796544
 31
0.0
  0
LINE
  5
152
100
AcDbEntity
  8
0
100
AcDbLine
 10
14.272371
 20
1.796544
 30
0.0
 11
12.147371
 21
1.796544
 31
0.0
  0
LINE
  5
153
100
AcDbEntity
  8
0
100
AcDbLine
 10
14.272371
 20
3.921544
 30
0.0
 11
14.272371
 21
1.796544
 31
0.0
  0
CIRCLE
  5
155
100
AcDbEntity
  8
0
100
AcDbCircle
 10
13.209871
 20
2.859044
 30
0.0
 40
0.899859
  0
LWPOLYLINE
  5
156
100
AcDbEntity
  8
0
100
AcDbPolyline
 90
        6
 70
     1
 43
0.0
 10
13.029737
 20
3.171044
 10
12.849604
 20
2.859044
 10
13.029737
 20
2.547044
 10
13.390004
 20
2.547044
 10
13.570137
 20
2.859044
 10
13.390004
 20
3.171044
  0
CIRCLE
  5
157
100
AcDbEntity
  8
0
100
AcDbCircle
 10
13.209871
 20
2.859044
 30
0.0
 40
0.125
  0
CIRCLE
  5
15C
100
AcDbEntity
  8
0
100
AcDbCircle
 10
12.360472
 20
3.708442
 30
0.0
 40
0.125
  0
CIRCLE
  5
15D
100
AcDbEntity
  8
0
100
AcDbCircle
 10
14.059269
 20
3.708442
 30
0.0
 40
0.125
  0
CIRCLE
  5
15E
100
AcDbEntity
  8
0
100
AcDbCircle
 10
14.059269
 20
2.009646
 30
0.0
 40
0.125
  0
CIRCLE
  5
15F
100
AcDbEntity
  8
0
100
AcDbCircle
 10
12.360472
 20
2.009646
 30
0.0
 40
0.125
  0
LWPOLYLINE
  5
161
100
AcDbEntity
  8
0
100
AcDbPolyline
 90
        6
 70
     1
 43
0.0
 10
12.317171
 20
3.783442
 10
12.27387
 20
3.708442
 10
12.317171
 20
3.633442
 10
12.403774
 20
3.633442
 10
12.447075
 20
3.708442
 10
12.403774
 20
3.783442
  0
LWPOLYLINE
  5
162
100
AcDbEntity
  8
0
100
AcDbPolyline
 90
        6
 70
     1
 43
0.0
 10
14.015968
 20
3.783442
 10
13.972666
 20
3.708442
 10
14.015968
 20
3.633442
 10
14.10257
 20
3.633442
 10
14.145871
 20
3.708442
 10
14.10257
 20
3.783442
  0
LWPOLYLINE
  5
163
100
AcDbEntity
  8
0
100
AcDbPolyline
 90
        6
 70
     1
 43
0.0
 10
14.015968
 20
2.084646
 10
13.972666
 20
2.009646
 10
14.015968
 20
1.934646
 10
14.10257
 20
1.934646
 10
14.145871
 20
2.009646
 10
14.10257
 20
2.084646
  0
LWPOLYLINE
  5
164
100
AcDbEntity
  8
0
100
AcDbPolyline
 90
        6
 70
     1
 43
0.0
 10
12.317171
 20
2.084646
 10
12.27387
 20
2.009646
 10
12.317171
 20
1.934646
 10
12.403774
 20
1.934646
 10
12.447075
 20
2.009646
 10
12.403774
 20
2.084646
  0
LINE
  5
1AA
100
AcDbEntity
  8
0
  6
CONTINUOUS
100
AcDbLine
 10
13.606799
 20
4.407341
 30
0.0
 11
13.606799
 21
4.907341
 31
0.0
  0
LINE
  5
1AB
100
AcDbEntity
  8
0
  6
CONTINUOUS
100
AcDbLine
 10
13.408335
 20
4.407341
 30
0.0
 11
13.408335
 21
4.907341
 31
0.0
  0
LINE
  5
1AC
100
AcDbEntity
  8
0
  6
CONTINUOUS
100
AcDbLine
 10
12.812942
 20
4.407341
 30
0.0
 11
12.812942
 21
4.907341
 31
0.0
  0
LINE
  5
1AD
100
AcDbEntity
  8
0
  6
CONTINUOUS
100
AcDbLine
 10
13.011406
 20
4.407341
 30
0.0
 11
13.011406
 21
4.907341
 31
0.0
  0
LINE
  5
1AE
100
AcDbEntity
  8
0
  6
CONTINUOUS
100
AcDbLine
 10
12.812942
 20
4.407341
 30
0.0
 11
13.606799
 21
4.407341
 31
0.0
  0
LINE
  5
1AF
100
AcDbEntity
  8
0
  6
CONTINUOUS
100
AcDbLine
 10
12.866121
 20
4.247341
 30
0.0
 11
13.553621
 21
4.247341
 31
0.0
  0
LINE
  5
1B0
100
AcDbEntity
  8
0
100
AcDbLine
 10
13.022871
 20
4.108544
 30
0.0
 11
13.396871
 21
4.108544
 31
0.0
  0
LINE
  5
1B1
100
AcDbEntity
  8
0
100
AcDbLine
 10
12.709871
 20
4.108544
 30
0.0
 11
13.709871
 21
4.108544
 31
0.0
  0
LINE
  5
1B2
100
AcDbEntity
  8
0
100
AcDbLine
 10
12.709871
 20
3.921544
 30
0.0
 11
13.709871
 21
3.921544
 31
0.0
  0
LINE
  5
1B3
100
AcDbEntity
  8
0
100
AcDbLine
 10
12.953261
 20
4.108544
 30
0.0
 11
12.953261
 21
3.921544
 31
0.0
  0
LINE
  5
1B4
100
AcDbEntity
  8
0
100
AcDbLine
 10
12.709871
 20
4.108544
 30
0.0
 11
12.709871
 21
3.921544
 31
0.0
  0
LINE
  5
1B5
100
AcDbEntity
  8
0
  6
CONTINUOUS
100
AcDbLine
 10
12.866121
 20
4.247341
 30
0.0
 11
12.866121
 21
4.407341
 31
0.0
  0
LINE
  5
1B6
100
AcDbEntity
  8
0
  6
CONTINUOUS
100
AcDbLine
 10
13.022871
 20
4.108544
 30
0.0
 11
13.022871
 21
4.247341
 31
0.0
  0
LINE
  5
1B7
100
AcDbEntity
  8
0
100
AcDbLine
 10
13.46648
 20
4.108544
 30
0.0
 11
13.46648
 21
3.921544
 31
0.0
  0
LINE
  5
1B8
100
AcDbEntity
  8
0
100
AcDbLine
 10
13.709871
 20
4.108544
 30
0.0
 11
13.709871
 21
3.921544
 31
0.0
  0
LINE
  5
1B9
100
AcDbEntity
  8
0
  6
CONTINUOUS
100
AcDbLine
 10
13.553621
 20
4.247341
 30
0.0
 11
13.553621
 21
4.407341
 31
0.0
  0
LINE
  5
1BA
100
AcDbEntity
  8
0
  6
CONTINUOUS
100
AcDbLine
 10
13.396871
 20
4.108544
 30
0.0
 11
13.396871
 21
4.247341
 31
0.0
  0
LINE
  5
1BB
100
AcDbEntity
  8
0
  6
CONTINUOUS
100
AcDbLine
 10
12.812942
 20
4.907341
 30
0.0
 11
13.606799
 21
4.907341
 31
0.0
  0
LINE
  5
1BC
100
AcDbEntity
  8
0
  6
CONTINUOUS
100
AcDbLine
 10
12.926121
 20
4.987341
 30
0.0
 11
13.493621
 21
4.987341
 31
0.0
  0
LINE
  5
1BD
100
AcDbEntity
  8
0
  6
CONTINUOUS
100
AcDbLine
 10
13.022871
 20
4.987341
 30
0.0
 11
13.021871
 21
6.626278
 31
0.0
  0
ARC
  5
1BE
100
AcDbEntity
  8
0
  6
CONTINUOUS
100
AcDbCircle
 10
12.926121
 20
4.927341
 30
0.0
 40
0.06
100
AcDbArc
 50
90.0
 51
180.0
  0
LINE
  5
1BF
100
AcDbEntity
  8
0
  6
CONTINUOUS
100
AcDbLine
 10
12.866121
 20
4.907341
 30
0.0
 11
12.866121
 21
4.927341
 31
0.0
  0
LINE
  5
1C0
100
AcDbEntity
  8
0
  6
CONTINUOUS
100
AcDbLine
 10
13.396871
 20
4.987341
 30
0.0
 11
13.396871
 21
6.626278
 31
0.0
  0
ARC
  5
1C1
100
AcDbEntity
  8
0
  6
CONTINUOUS
100
AcDbCircle
 10
13.493621
 20
4.927341
 30
0.0
 40
0.06
100
AcDbArc
 50
0.0
 51
90.0
  0
LINE
  5
1C2
100
AcDbEntity
  8
0
  6
CONTINUOUS
100
AcDbLine
 10
13.553621
 20
4.907341
 30
0.0
 11
13.553621
 21
4.927341
 31
0.0
  0
LINE
  5
1DC
100
AcDbEntity
  8
0
  6
CONTINUOUS
100
AcDbLine
 10
13.396871
 20
0.568222
 30
0.0
 11
13.396871
 21
-0.911261
 31
0.0
  0
LINE
  5
1DD
100
AcDbEntity
  8
0
  6
CONTINUOUS
100
AcDbLine
 10
13.022871
 20
0.730747
 30
0.0
 11
13.022871
 21
0.230747
 31
0.0
  0
LINE
  5
1DE
100
AcDbEntity
  8
0
100
AcDbLine
 10
13.709871
 20
1.609544
 30
0.0
 11
13.709871
 21
1.796544
 31
0.0
  0
LINE
  5
1DF
100
AcDbEntity
  8
0
100
AcDbLine
 10
13.46648
 20
1.609544
 30
0.0
 11
13.46648
 21
1.796544
 31
0.0
  0
LINE
  5
1E0
100
AcDbEntity
  8
0
100
AcDbLine
 10
12.709871
 20
1.609544
 30
0.0
 11
12.709871
 21
1.796544
 31
0.0
  0
LINE
  5
1E1
100
AcDbEntity
  8
0
100
AcDbLine
 10
12.953261
 20
1.609544
 30
0.0
 11
12.953261
 21
1.796544
 31
0.0
  0
LINE
  5
1E2
100
AcDbEntity
  8
0
  6
CONTINUOUS
100
AcDbLine
 10
12.926121
 20
0.730747
 30
0.0
 11
13.275339
 21
0.730747
 31
0.0
  0
LINE
  5
1E3
100
AcDbEntity
  8
0
  6
CONTINUOUS
100
AcDbLine
 10
12.812942
 20
0.810747
 30
0.0
 11
13.229125
 21
0.810747
 31
0.0
  0
LINE
  5
1E4
100
AcDbEntity
  8
0
100
AcDbLine
 10
12.709871
 20
1.609544
 30
0.0
 11
13.083871
 21
1.609544
 31
0.0
  0
LINE
  5
1E5
100
AcDbEntity
  8
0
100
AcDbLine
 10
13.022871
 20
1.609544
 30
0.0
 11
13.083871
 21
1.609544
 31
0.0
  0
LINE
  5
1E6
100
AcDbEntity
  8
0
  6
CONTINUOUS
100
AcDbLine
 10
12.866121
 20
1.470747
 30
0.0
 11
12.918871
 21
1.470747
 31
0.0
  0
LINE
  5
1E7
100
AcDbEntity
  8
0
  6
CONTINUOUS
100
AcDbLine
 10
12.812942
 20
1.310747
 30
0.0
 11
12.918871
 21
1.310747
 31
0.0
  0
LINE
  5
1E8
100
AcDbEntity
  8
0
  6
CONTINUOUS
100
AcDbLine
 10
13.011406
 20
1.280315
 30
0.0
 11
13.011406
 21
0.810747
 31
0.0
  0
LINE
  5
1E9
100
AcDbEntity
  8
0
  6
CONTINUOUS
100
AcDbLine
 10
12.812942
 20
1.310747
 30
0.0
 11
12.812942
 21
0.810747
 31
0.0
  0
ARC
  5
1EA
100
AcDbEntity
  8
0
  6
CONTINUOUS
100
AcDbCircle
 10
12.926121
 20
0.790747
 30
0.0
 40
0.06
100
AcDbArc
 50
180.0
 51
270.0
  0
LINE
  5
1EB
100
AcDbEntity
  8
0
  6
CONTINUOUS
100
AcDbLine
 10
12.866121
 20
0.810747
 30
0.0
 11
12.866121
 21
0.790747
 31
0.0
  0
LINE
  5
1EC
100
AcDbEntity
  8
0
  6
CONTINUOUS
100
AcDbLine
 10
12.866121
 20
1.470747
 30
0.0
 11
12.866121
 21
1.310747
 31
0.0
  0
LINE
  5
1ED
100
AcDbEntity
  8
0
  6
CONTINUOUS
100
AcDbLine
 10
13.022871
 20
1.609544
 30
0.0
 11
13.022871
 21
1.530315
 31
0.0
  0
LINE
  5
1EE
100
AcDbEntity
  8
0
  6
CONTINUOUS
100
AcDbLine
 10
13.408335
 20
1.310747
 30
0.0
 11
13.408335
 21
1.016926
 31
0.0
  0
LINE
  5
1EF
100
AcDbEntity
  8
0
  6
CONTINUOUS
100
AcDbLine
 10
13.606799
 20
1.310747
 30
0.0
 11
13.606799
 21
0.810747
 31
0.0
  0
LINE
  5
1F0
100
AcDbEntity
  8
0
  6
CONTINUOUS
100
AcDbLine
 10
13.553621
 20
0.810747
 30
0.0
 11
13.553621
 21
0.790747
 31
0.0
  0
ARC
  5
1F1
100
AcDbEntity
  8
0
  6
CONTINUOUS
100
AcDbCircle
 10
13.493621
 20
0.790747
 30
0.0
 40
0.06
100
AcDbArc
 50
343.14296
 51
0.0
  0
LINE
  5
1F2
100
AcDbEntity
  8
0
  6
CONTINUOUS
100
AcDbLine
 10
13.553621
 20
1.470747
 30
0.0
 11
13.553621
 21
1.310747
 31
0.0
  0
LINE
  5
1F3
100
AcDbEntity
  8
0
  6
CONTINUOUS
100
AcDbLine
 10
13.396871
 20
1.609544
 30
0.0
 11
13.396871
 21
1.470747
 31
0.0
  0
LINE
  5
1F4
100
AcDbEntity
  8
0
100
AcDbLine
 10
12.709871
 20
1.796544
 30
0.0
 11
13.709871
 21
1.796544
 31
0.0
  0
LINE
  5
246
100
AcDbEntity
  8
0
  6
CONTINUOUS
100
AcDbLine
 10
16.346573
 20
8.657028
 30
0.0
 11
16.326573
 21
8.657028
 31
0.0
  0
LINE
  5
247
100
AcDbEntity
  8
0
  6
CONTINUOUS
100
AcDbLine
 10
16.346573
 20
7.969528
 30
0.0
 11
16.326573
 21
7.969528
 31
0.0
  0
LINE
  5
248
100
AcDbEntity
  8
0
  6
CONTINUOUS
100
AcDbLine
 10
16.266573
 20
8.029528
 30
0.0
 11
16.266573
 21
8.597028
 31
0.0
  0
LINE
  5
249
100
AcDbEntity
  8
0
  6
CONTINUOUS
100
AcDbLine
 10
16.266573
 20
8.126278
 30
0.0
 11
14.896871
 21
8.126278
 31
0.0
  0
LINE
  5
24A
100
AcDbEntity
  8
0
  6
CONTINUOUS
100
AcDbLine
 10
16.266573
 20
8.500278
 30
0.0
 11
14.896871
 21
8.501278
 31
0.0
  0
ARC
  5
24B
100
AcDbEntity
  8
0
  6
CONTINUOUS
100
AcDbCircle
 10
16.326573
 20
8.029528
 30
0.0
 40
0.06
100
AcDbArc
 50
180.0
 51
270.0
  0
ARC
  5
24C
100
AcDbEntity
  8
0
  6
CONTINUOUS
100
AcDbCircle
 10
16.326573
 20
8.597028
 30
0.0
 40
0.06
100
AcDbArc
 50
90.0
 51
180.0
  0
LINE
  5
24D
100
AcDbEntity
  8
0
100
AcDbLine
 10
17.085371
 20
8.114813
 30
0.0
 11
17.272371
 21
8.114813
 31
0.0
  0
LINE
  5
24E
100
AcDbEntity
  8
0
100
AcDbLine
 10
17.085371
 20
8.511742
 30
0.0
 11
17.272371
 21
8.511742
 31
0.0
  0
LINE
  5
24F
100
AcDbEntity
  8
0
100
AcDbLine
 10
17.085371
 20
8.713278
 30
0.0
 11
17.272371
 21
8.713278
 31
0.0
  0
LINE
  5
250
100
AcDbEntity
  8
0
100
AcDbLine
 10
17.085371
 20
7.916349
 30
0.0
 11
17.272371
 21
7.916349
 31
0.0
  0
LINE
  5
251
100
AcDbEntity
  8
0
100
AcDbLine
 10
17.085371
 20
7.916349
 30
0.0
 11
17.085371
 21
8.713278
 31
0.0
  0
LINE
  5
252
100
AcDbEntity
  8
0
  6
CONTINUOUS
100
AcDbLine
 10
16.846573
 20
7.916349
 30
0.0
 11
16.846573
 21
8.710206
 31
0.0
  0
LINE
  5
253
100
AcDbEntity
  8
0
  6
CONTINUOUS
100
AcDbLine
 10
17.006573
 20
7.969528
 30
0.0
 11
17.006573
 21
8.657028
 31
0.0
  0
LINE
  5
254
100
AcDbEntity
  8
0
  6
CONTINUOUS
100
AcDbLine
 10
16.346573
 20
7.916349
 30
0.0
 11
16.346573
 21
8.710206
 31
0.0
  0
LINE
  5
255
100
AcDbEntity
  8
0
  6
CONTINUOUS
100
AcDbLine
 10
16.846573
 20
8.511742
 30
0.0
 11
16.346573
 21
8.511742
 31
0.0
  0
LINE
  5
256
100
AcDbEntity
  8
0
  6
CONTINUOUS
100
AcDbLine
 10
16.846573
 20
8.114813
 30
0.0
 11
16.346573
 21
8.114813
 31
0.0
  0
LINE
  5
257
100
AcDbEntity
  8
0
  6
CONTINUOUS
100
AcDbLine
 10
16.846573
 20
7.916349
 30
0.0
 11
16.346573
 21
7.916349
 31
0.0
  0
LINE
  5
258
100
AcDbEntity
  8
0
100
AcDbLine
 10
17.085371
 20
8.126278
 30
0.0
 11
17.085371
 21
8.500278
 31
0.0
  0
LINE
  5
259
100
AcDbEntity
  8
0
  6
CONTINUOUS
100
AcDbLine
 10
17.006573
 20
7.969528
 30
0.0
 11
16.846573
 21
7.969528
 31
0.0
  0
LINE
  5
25A
100
AcDbEntity
  8
0
  6
CONTINUOUS
100
AcDbLine
 10
17.085371
 20
8.126278
 30
0.0
 11
17.006573
 21
8.126278
 31
0.0
  0
LINE
  5
25B
100
AcDbEntity
  8
0
  6
CONTINUOUS
100
AcDbLine
 10
17.085371
 20
8.500278
 30
0.0
 11
17.006573
 21
8.500278
 31
0.0
  0
LINE
  5
25C
100
AcDbEntity
  8
0
  6
CONTINUOUS
100
AcDbLine
 10
16.846573
 20
8.710206
 30
0.0
 11
16.346573
 21
8.710206
 31
0.0
  0
LINE
  5
25D
100
AcDbEntity
  8
0
  6
CONTINUOUS
100
AcDbLine
 10
17.006573
 20
8.657028
 30
0.0
 11
16.846573
 21
8.657028
 31
0.0
  0
LINE
  5
25E
100
AcDbEntity
  8
0
100
AcDbLine
 10
17.272371
 20
7.916349
 30
0.0
 11
17.272371
 21
8.713278
 31
0.0
  0
ARC
  5
25F
100
AcDbEntity
  8
0
  6
CONTINUOUS
100
AcDbCircle
 10
14.896871
 20
6.626278
 30
0.0
 40
1.5
100
AcDbArc
 50
90.0
 51
180.0
  0
ARC
  5
260
100
AcDbEntity
  8
0
  6
CONTINUOUS
100
AcDbCircle
 10
14.896871
 20
6.626278
 30
0.0
 40
1.875
100
AcDbArc
 50
90.0
 51
180.0
  0
LINE
  5
261
100
AcDbEntity
  8
0
  6
CONTINUOUS
100
AcDbLine
 10
16.266573
 20
8.125278
 30
0.0
 11
15.766573
 21
8.125278
 31
0.0
  0
LINE
  5
262
100
AcDbEntity
  8
0
  6
CONTINUOUS
100
AcDbLine
 10
16.346573
 20
-2.254511
 30
0.0
 11
16.326573
 21
-2.254511
 31
0.0
  0
LINE
  5
263
100
AcDbEntity
  8
0
  6
CONTINUOUS
100
AcDbLine
 10
16.346573
 20
-2.942011
 30
0.0
 11
16.326573
 21
-2.942011
 31
0.0
  0
LINE
  5
264
100
AcDbEntity
  8
0
  6
CONTINUOUS
100
AcDbLine
 10
16.266573
 20
-2.882011
 30
0.0
 11
16.266573
 21
-2.314511
 31
0.0
  0
LINE
  5
265
100
AcDbEntity
  8
0
  6
CONTINUOUS
100
AcDbLine
 10
16.266573
 20
-2.785261
 30
0.0
 11
14.896871
 21
-2.786261
 31
0.0
  0
LINE
  5
266
100
AcDbEntity
  8
0
  6
CONTINUOUS
100
AcDbLine
 10
16.266573
 20
-2.411261
 30
0.0
 11
14.896871
 21
-2.411261
 31
0.0
  0
ARC
  5
267
100
AcDbEntity
  8
0
  6
CONTINUOUS
100
AcDbCircle
 10
16.326573
 20
-2.882011
 30
0.0
 40
0.06
100
AcDbArc
 50
180.0
 51
270.0
  0
ARC
  5
268
100
AcDbEntity
  8
0
  6
CONTINUOUS
100
AcDbCircle
 10
16.326573
 20
-2.314511
 30
0.0
 40
0.06
100
AcDbArc
 50
90.0
 51
180.0
  0
LINE
  5
269
100
AcDbEntity
  8
0
100
AcDbLine
 10
17.085371
 20
-2.796725
 30
0.0
 11
17.272371
 21
-2.796725
 31
0.0
  0
LINE
  5
26A
100
AcDbEntity
  8
0
100
AcDbLine
 10
17.085371
 20
-2.399797
 30
0.0
 11
17.272371
 21
-2.399797
 31
0.0
  0
LINE
  5
26B
100
AcDbEntity
  8
0
100
AcDbLine
 10
17.085371
 20
-2.198261
 30
0.0
 11
17.272371
 21
-2.198261
 31
0.0
  0
LINE
  5
26C
100
AcDbEntity
  8
0
100
AcDbLine
 10
17.085371
 20
-2.995189
 30
0.0
 11
17.272371
 21
-2.995189
 31
0.0
  0
LINE
  5
26D
100
AcDbEntity
  8
0
100
AcDbLine
 10
17.085371
 20
-2.995189
 30
0.0
 11
17.085371
 21
-2.198261
 31
0.0
  0
LINE
  5
26E
100
AcDbEntity
  8
0
  6
CONTINUOUS
100
AcDbLine
 10
16.846573
 20
-2.995189
 30
0.0
 11
16.846573
 21
-2.201333
 31
0.0
  0
LINE
  5
26F
100
AcDbEntity
  8
0
  6
CONTINUOUS
100
AcDbLine
 10
17.006573
 20
-2.942011
 30
0.0
 11
17.006573
 21
-2.254511
 31
0.0
  0
LINE
  5
270
100
AcDbEntity
  8
0
  6
CONTINUOUS
100
AcDbLine
 10
16.346573
 20
-2.995189
 30
0.0
 11
16.346573
 21
-2.201333
 31
0.0
  0
LINE
  5
271
100
AcDbEntity
  8
0
  6
CONTINUOUS
100
AcDbLine
 10
16.846573
 20
-2.399797
 30
0.0
 11
16.346573
 21
-2.399797
 31
0.0
  0
LINE
  5
272
100
AcDbEntity
  8
0
  6
CONTINUOUS
100
AcDbLine
 10
16.846573
 20
-2.796725
 30
0.0
 11
16.346573
 21
-2.796725
 31
0.0
  0
LINE
  5
273
100
AcDbEntity
  8
0
  6
CONTINUOUS
100
AcDbLine
 10
16.846573
 20
-2.995189
 30
0.0
 11
16.346573
 21
-2.995189
 31
0.0
  0
LINE
  5
274
100
AcDbEntity
  8
0
100
AcDbLine
 10
17.085371
 20
-2.785261
 30
0.0
 11
17.085371
 21
-2.411261
 31
0.0
  0
LINE
  5
275
100
AcDbEntity
  8
0
  6
CONTINUOUS
100
AcDbLine
 10
17.006573
 20
-2.942011
 30
0.0
 11
16.846573
 21
-2.942011
 31
0.0
  0
LINE
  5
276
100
AcDbEntity
  8
0
  6
CONTINUOUS
100
AcDbLine
 10
17.085371
 20
-2.785261
 30
0.0
 11
17.006573
 21
-2.785261
 31
0.0
  0
LINE
  5
277
100
AcDbEntity
  8
0
  6
CONTINUOUS
100
AcDbLine
 10
17.085371
 20
-2.411261
 30
0.0
 11
17.006573
 21
-2.411261
 31
0.0
  0
LINE
  5
278
100
AcDbEntity
  8
0
  6
CONTINUOUS
100
AcDbLine
 10
16.846573
 20
-2.201333
 30
0.0
 11
16.346573
 21
-2.201333
 31
0.0
  0
LINE
  5
279
100
AcDbEntity
  8
0
  6
CONTINUOUS
100
AcDbLine
 10
17.006573
 20
-2.254511
 30
0.0
 11
16.846573
 21
-2.254511
 31
0.0
  0
LINE
  5
27A
100
AcDbEntity
  8
0
100
AcDbLine
 10
17.272371
 20
-2.995189
 30
0.0
 11
17.272371
 21
-2.198261
 31
0.0
  0
ARC
  5
27B
100
AcDbEntity
  8
0
  6
CONTINUOUS
100
AcDbCircle
 10
14.896871
 20
-0.911261
 30
0.0
 40
1.5
100
AcDbArc
 50
180.0
 51
270.0
  0
LINE
  5
27C
100
AcDbEntity
  8
0
  6
CONTINUOUS
100
AcDbLine
 10
13.021871
 20
0.730747
 30
0.0
 11
13.021871
 21
-0.911261
 31
0.0
  0
ARC
  5
27D
100
AcDbEntity
  8
0
  6
CONTINUOUS
100
AcDbCircle
 10
14.896871
 20
-0.911261
 30
0.0
 40
1.875
100
AcDbArc
 50
180.0
 51
270.0
  0
ARC
  5
297
100
AcDbEntity
  8
0
  6
CONTINUOUS
100
AcDbCircle
 10
11.523144
 20
3.045306
 30
0.0
 40
0.0396
100
AcDbArc
 50
90.0
 51
180.0
  0
ARC
  5
298
100
AcDbEntity
  8
0
  6
CONTINUOUS
100
AcDbCircle
 10
11.523144
 20
2.670756
 30
0.0
 40
0.0396
100
AcDbArc
 50
180.0
 51
270.0
  0
LINE
  5
299
100
AcDbEntity
  8
0
  6
CONTINUOUS
100
AcDbLine
 10
11.483544
 20
2.670756
 30
0.0
 11
11.483544
 21
3.045306
 31
0.0
  0
LINE
  5
29A
100
AcDbEntity
  8
0
  6
CONTINUOUS
100
AcDbLine
 10
11.483544
 20
2.734611
 30
0.0
 11
10.112859
 21
2.734611
 31
0.0
  0
LINE
  5
29B
100
AcDbEntity
  8
0
  6
CONTINUOUS
100
AcDbLine
 10
11.483544
 20
2.981451
 30
0.0
 11
11.153544
 21
2.981451
 31
0.0
  0
LINE
  5
29C
100
AcDbEntity
  8
0
100
AcDbLine
 10
12.147371
 20
2.596058
 30
0.0
 11
12.147371
 21
3.122031
 31
0.0
  0
LINE
  5
29D
100
AcDbEntity
  8
0
  6
CONTINUOUS
100
AcDbLine
 10
11.971944
 20
2.631156
 30
0.0
 11
11.971944
 21
3.084906
 31
0.0
  0
LINE
  5
29E
100
AcDbEntity
  8
0
  6
CONTINUOUS
100
AcDbLine
 10
11.866344
 20
2.596058
 30
0.0
 11
11.866344
 21
3.120003
 31
0.0
  0
LINE
  5
29F
100
AcDbEntity
  8
0
100
AcDbLine
 10
12.023951
 20
2.596058
 30
0.0
 11
12.023951
 21
3.122031
 31
0.0
  0
LINE
  5
2A0
100
AcDbEntity
  8
0
  6
CONTINUOUS
100
AcDbLine
 10
11.536344
 20
2.596058
 30
0.0
 11
11.536344
 21
3.120003
 31
0.0
  0
LINE
  5
2A1
100
AcDbEntity
  8
0
  6
CONTINUOUS
100
AcDbLine
 10
11.971944
 20
2.631156
 30
0.0
 11
11.866344
 21
2.631156
 31
0.0
  0
LINE
  5
2A2
100
AcDbEntity
  8
0
  6
CONTINUOUS
100
AcDbLine
 10
11.866344
 20
2.596058
 30
0.0
 11
11.536344
 21
2.596058
 31
0.0
  0
LINE
  5
2A3
100
AcDbEntity
  8
0
  6
CONTINUOUS
100
AcDbLine
 10
11.866344
 20
2.727044
 30
0.0
 11
11.536344
 21
2.727044
 31
0.0
  0
LINE
  5
2A4
100
AcDbEntity
  8
0
  6
CONTINUOUS
100
AcDbLine
 10
11.536344
 20
2.631156
 30
0.0
 11
11.523144
 21
2.631156
 31
0.0
  0
LINE
  5
2A5
100
AcDbEntity
  8
0
  6
CONTINUOUS
100
AcDbLine
 10
11.866344
 20
2.989017
 30
0.0
 11
11.536344
 21
2.989017
 31
0.0
  0
LINE
  5
2A6
100
AcDbEntity
  8
0
100
AcDbLine
 10
12.023951
 20
2.727044
 30
0.0
 11
12.147371
 21
2.727044
 31
0.0
  0
LINE
  5
2A7
100
AcDbEntity
  8
0
100
AcDbLine
 10
12.023951
 20
2.596058
 30
0.0
 11
12.147371
 21
2.596058
 31
0.0
  0
LINE
  5
2A8
100
AcDbEntity
  8
0
100
AcDbLine
 10
12.023951
 20
2.989017
 30
0.0
 11
12.147371
 21
2.989017
 31
0.0
  0
LINE
  5
2A9
100
AcDbEntity
  8
0
  6
CONTINUOUS
100
AcDbLine
 10
12.023951
 20
2.981451
 30
0.0
 11
11.971944
 21
2.981451
 31
0.0
  0
LINE
  5
2AA
100
AcDbEntity
  8
0
  6
CONTINUOUS
100
AcDbLine
 10
12.023951
 20
2.734611
 30
0.0
 11
11.971944
 21
2.734611
 31
0.0
  0
LINE
  5
2AB
100
AcDbEntity
  8
0
100
AcDbLine
 10
12.023951
 20
2.734611
 30
0.0
 11
12.023951
 21
2.981451
 31
0.0
  0
LINE
  5
2AC
100
AcDbEntity
  8
0
  6
CONTINUOUS
100
AcDbLine
 10
11.971944
 20
3.084906
 30
0.0
 11
11.866344
 21
3.084906
 31
0.0
  0
LINE
  5
2AD
100
AcDbEntity
  8
0
  6
CONTINUOUS
100
AcDbLine
 10
11.866344
 20
3.120003
 30
0.0
 11
11.536344
 21
3.120003
 31
0.0
  0
LINE
  5
2AE
100
AcDbEntity
  8
0
  6
CONTINUOUS
100
AcDbLine
 10
11.536344
 20
3.084906
 30
0.0
 11
11.523144
 21
3.084906
 31
0.0
  0
LINE
  5
2AF
100
AcDbEntity
  8
0
100
AcDbLine
 10
12.023951
 20
3.122031
 30
0.0
 11
12.147371
 21
3.122031
 31
0.0
  0
LINE
  5
2B2
100
AcDbEntity
  8
0
100
AcDbLine
 10
15.026185
 20
-1.174681
 30
0.0
 11
13.420182
 21
-1.174681
 31
0.0
  0
LINE
  5
2B3
100
AcDbEntity
  8
0
100
AcDbLine
 10
9.112859
 20
1.734611
 30
0.0
 11
9.112859
 21
0.072119
 31
0.0
  0
ARC
  5
2B4
100
AcDbEntity
  8
0
100
AcDbCircle
 10
10.112859
 20
1.734611
 30
0.0
 40
1.0
100
AcDbArc
 50
90.0
 51
180.0
  0
ARC
  5
2B5
100
AcDbEntity
  8
0
100
AcDbCircle
 10
10.112859
 20
0.072119
 30
0.0
 40
1.0
100
AcDbArc
 50
180.0
 51
270.0
  0
LINE
  5
2B6
100
AcDbEntity
  8
0
100
AcDbLine
 10
13.021944
 20
-0.927881
 30
0.0
 11
10.112859
 21
-0.927881
 31
0.0
  0
LINE
  5
2B7
100
AcDbEntity
  8
0
100
AcDbLine
 10
13.040467
 20
-1.174681
 30
0.0
 11
12.026185
 21
-1.174681
 31
0.0
  0
LINE
  5
2B8
100
AcDbEntity
  8
0
  6
CONTINUOUS
100
AcDbLine
 10
11.483544
 20
2.981411
 30
0.0
 11
10.112859
 21
2.981411
 31
0.0
  0
ARC
  5
2B9
100
AcDbEntity
  8
0
100
AcDbCircle
 10
10.112859
 20
1.734611
 30
0.0
 40
1.2468
100
AcDbArc
 50
90.0
 51
180.0
  0
LINE
  5
2BA
100
AcDbEntity
  8
0
100
AcDbLine
 10
8.866059
 20
1.734611
 30
0.0
 11
8.866059
 21
0.072119
 31
0.0
  0
ARC
  5
2BB
100
AcDbEntity
  8
0
100
AcDbCircle
 10
10.112859
 20
0.072119
 30
0.0
 40
1.2468
100
AcDbArc
 50
180.0
 51
270.0
  0
LINE
  5
2BC
100
AcDbEntity
  8
0
100
AcDbLine
 10
13.021944
 20
-1.174681
 30
0.0
 11
10.112859
 21
-1.174681
 31
0.0
  0
MTEXT
  5
2BE
100
AcDbEntity
  8
0
100
AcDbMText
 10
18.001018
 20
-1.171701
 30
0.0
 40
0.18
 41
0.0
 71
     9
 72
     1
  1
{\fArial|b0|i0|c0|p34;FUEL PRESS. GUAGE}
1001
ACAD
1000
MTEXTBEGIN
1070
    73
1070
     1
1070
    44
1040
1.0
1070
    74
1070
     0
1000
MTEXTEND
1000
MTEXTBEGIN
1070
    73
1070
     1
1070
    44
1040
1.0
1070
    74
1070
     0
1000
MTEXTEND
1000
MTEXTBEGIN
1070
    73
1070
     1
1070
    44
1040
1.0
1070
    74
1070
     0
1000
MTEXTEND
  0
LINE
  5
2EF
100
AcDbEntity
  8
0
100
AcDbLine
 10
13.044871
 20
1.796544
 30
0.0
 11
13.044871
 21
1.646544
 31
0.0
  0
LINE
  5
2F0
100
AcDbEntity
  8
0
100
AcDbLine
 10
13.374871
 20
1.796544
 30
0.0
 11
13.374871
 21
1.646544
 31
0.0
  0
LINE
  5
2F1
100
AcDbEntity
  8
0
100
AcDbLine
 10
13.124871
 20
1.796544
 30
0.0
 11
13.124871
 21
1.646544
 31
0.0
  0
LINE
  5
2F2
100
AcDbEntity
  8
0
100
AcDbLine
 10
13.294871
 20
1.796544
 30
0.0
 11
13.294871
 21
1.646544
 31
0.0
  0
HATCH
  5
2F3
100
AcDbEntity
  8
0
100
AcDbHatch
 10
0.0
 20
0.0
 30
0.0
210
0.0
220
0.0
230
1.0
  2
AR-HBONE
 70
     0
 71
     1
 91
        2
 92
        7
 72
     0
 73
     1
 93
        4
 10
13.33387054595933
 20
1.531043775191516
 10
13.33387054595933
 20
1.646544185845625
 10
13.08387054595933
 20
1.646544185845625
 10
13.08387054595933
 20
1.53031544292344
 97
        4
330
2FB
330
300
330
2FC
330
303
 92
        5
 93
        6
 72
     1
 10
14.332672
 20
0.145586
 11
15.85537
 21
0.144127
 72
     4
 94
        3
 73
     0
 74
     0
 95
        9
 96
        5
 40
0.0
 40
0.0
 40
0.0
 40
0.0
 40
0.146536
 40
0.276538
 40
0.276538
 40
0.276538
 40
0.276538
 10
15.856195
 20
0.144126
 10
15.84573
 20
0.148744
 10
15.759972
 20
0.289416
 10
15.825588
 20
0.360642
 10
15.856434
 20
0.394126
 72
     1
 10
15.856434
 20
0.394126
 11
14.332912
 21
0.395586
 72
     2
 10
14.333871
 20
1.395586
 40
1.0
 50
90.054931
 51
173.411895
 73
     0
 72
     1
 10
13.340474
 20
1.280855
 11
13.089189
 21
1.280398
 72
     2
 10
14.333871
 20
1.395586
 40
1.25
 50
185.287332
 51
269.945069
 73
     1
 97
        6
330
2FD
330
2F6
330
2F4
330
305
330
2F5
330
2F7
 75
     0
 76
     1
 52
0.0
 41
0.02
 77
     0
 78
     2
 53
45.0
 43
2.277339
 44
11.646839
 45
0.0
 46
0.1131370849898476
 79
     2
 49
0.24
 49
-0.08
 53
135.0
 43
2.333908
 44
11.703408
 45
0.0
 46
0.1131370849898476
 79
     2
 49
0.24
 49
-0.08
 47
0.009254
 98
        2
 10
13.222582
 20
1.573842
 10
13.398555
 20
0.694742
  0
LINE
  5
2F4
102
{ACAD_REACTORS
330
2F3
102
}
100
AcDbEntity
  8
0
100
AcDbLine
 10
14.332672
 20
0.145586
 30
0.0
 11
15.856195
 21
0.144126
 31
0.0
  0
LINE
  5
2F5
102
{ACAD_REACTORS
330
2F3
102
}
100
AcDbEntity
  8
0
100
AcDbLine
 10
14.332912
 20
0.395586
 30
0.0
 11
15.856434
 21
0.394126
 31
0.0
  0
ARC
  5
2F6
102
{ACAD_REACTORS
330
2F3
102
}
100
AcDbEntity
  8
0
100
AcDbCircle
 10
14.333871
 20
1.395586
 30
0.0
 40
1.25
100
AcDbArc
 50
185.287332
 51
269.945069
  0
ARC
  5
2F7
102
{ACAD_REACTORS
330
2F3
102
}
100
AcDbEntity
  8
0
100
AcDbCircle
 10
14.333871
 20
1.395586
 30
0.0
 40
1.0
100
AcDbArc
 50
186.588105
 51
269.945069
  0
LINE
  5
2F8
100
AcDbEntity
  8
0
100
AcDbLine
 10
13.043871
 20
1.280315
 30
0.0
 11
12.918871
 21
1.280315
 31
0.0
  0
LINE
  5
2F9
100
AcDbEntity
  8
0
100
AcDbLine
 10
13.043871
 20
1.530315
 30
0.0
 11
12.918871
 21
1.530315
 31
0.0
  0
LINE
  5
2FA
100
AcDbEntity
  8
0
100
AcDbLine
 10
12.918871
 20
1.530315
 30
0.0
 11
12.918871
 21
1.280315
 31
0.0
  0
LINE
  5
2FB
102
{ACAD_REACTORS
330
2F3
102
}
100
AcDbEntity
  8
0
100
AcDbLine
 10
13.044871
 20
1.646544
 30
0.0
 11
13.374871
 21
1.646544
 31
0.0
  0
LINE
  5
2FC
102
{ACAD_REACTORS
330
2F3
102
}
100
AcDbEntity
  8
0
100
AcDbLine
 10
13.083871
 20
1.530315
 30
0.0
 11
13.333871
 21
1.531044
 31
0.0
  0
LINE
  5
2FD
102
{ACAD_REACTORS
330
2F3
102
}
100
AcDbEntity
  8
0
100
AcDbLine
 10
13.043871
 20
1.280315
 30
0.0
 11
13.374326
 21
1.280917
 31
0.0
  0
LINE
  5
2FE
100
AcDbEntity
  8
0
100
AcDbLine
 10
13.003871
 20
1.530315
 30
0.0
 11
13.003871
 21
1.280315
 31
0.0
  0
LINE
  5
2FF
100
AcDbEntity
  8
0
100
AcDbLine
 10
13.043871
 20
1.530315
 30
0.0
 11
13.043871
 21
1.280315
 31
0.0
  0
LINE
  5
300
102
{ACAD_REACTORS
330
2F3
102
}
100
AcDbEntity
  8
0
100
AcDbLine
 10
13.083871
 20
1.646544
 30
0.0
 11
13.083871
 21
1.530315
 31
0.0
  0
LINE
  5
301
100
AcDbEntity
  8
0
100
AcDbLine
 10
13.083871
 20
1.530315
 30
0.0
 11
13.043871
 21
1.530315
 31
0.0
  0
LINE
  5
302
100
AcDbEntity
  8
0
100
AcDbLine
 10
13.373871
 20
1.531044
 30
0.0
 11
13.374326
 21
1.280917
 31
0.0
  0
LINE
  5
303
102
{ACAD_REACTORS
330
2F3
102
}
100
AcDbEntity
  8
0
100
AcDbLine
 10
13.333871
 20
1.646544
 30
0.0
 11
13.333871
 21
1.531044
 31
0.0
  0
LINE
  5
304
100
AcDbEntity
  8
0
100
AcDbLine
 10
13.333871
 20
1.531044
 30
0.0
 11
13.373871
 21
1.531044
 31
0.0
  0
SPLINE
  5
305
102
{ACAD_REACTORS
330
2F3
102
}
100
AcDbEntity
  8
0
100
AcDbSpline
210
0.0
220
0.0
230
-1.0
 70
     8
 71
     3
 72
    10
 73
     6
 74
     4
 42
0.0000001
 43
0.0000001
 44
0.0000000001
 40
0.0
 40
0.0
 40
0.0
 40
0.0
 40
0.1300019672633676
 40
0.2765379512521995
 40
0.4370946904531344
 40
0.4370946904531344
 40
0.4370946904531344
 40
0.4370946904531344
 10
15.85643427351725
 20
0.3941257216337703
 30
0.0
 10
15.82558781221578
 20
0.3606419189886794
 30
0.0
 10
15.7599717496957
 20
0.2894157492735107
 30
0.0
 10
15.89552040934065
 20
0.0670704055758963
 30
0.0
 10
15.8371354746457
 20
0.2179500790804739
 30
0.0
 10
15.80661018366612
 20
0.2968342289163104
 30
0.0
 11
15.85643427351725
 21
0.3941257216337703
 31
0.0
 11
15.79734840151567
 21
0.2783268821656684
 31
0.0
 11
15.85619459046445
 21
0.144125836529728
 31
0.0
 11
15.80661018366612
 21
0.2968342289163104
 31
0.0
  0
LINE
  5
306
100
AcDbEntity
  8
0
100
AcDbLine
 10
13.044871
 20
1.796544
 30
0.0
 11
13.374871
 21
1.796544
 31
0.0
  0
LINE
  5
307
100
AcDbEntity
  8
0
100
AcDbLine
 10
13.333871
 20
1.609544
 30
0.0
 11
13.709871
 21
1.609544
 31
0.0
  0
LINE
  5
308
100
AcDbEntity
  8
0
100
AcDbLine
 10
13.333871
 20
1.609544
 30
0.0
 11
13.396871
 21
1.609544
 31
0.0
  0
LINE
  5
309
100
AcDbEntity
  8
0
  6
CONTINUOUS
100
AcDbLine
 10
13.37398
 20
1.470747
 30
0.0
 11
13.553621
 21
1.470747
 31
0.0
  0
LINE
  5
30A
100
AcDbEntity
  8
0
  6
CONTINUOUS
100
AcDbLine
 10
13.374271
 20
1.310747
 30
0.0
 11
13.606799
 21
1.310747
 31
0.0
  0
LINE
  5
30B
100
AcDbEntity
  8
0
  6
CONTINUOUS
100
AcDbLine
 10
13.522721
 20
0.810747
 30
0.0
 11
13.606799
 21
0.810747
 31
0.0
  0
LEADER
  5
30C
100
AcDbEntity
  8
0
100
AcDbLeader
  3
STANDARD
 73
     0
 40
0.18
 41
3.54
 76
     2
 10
23.474213
 20
0.229435
 30
0.0
 10
20.939029
 20
0.229435
 30
0.0
 77
   256
340
30D
213
1.042591479621588
223
0.0324347715708106
233
0.0
1001
ACAD
1000
DSTYLE
1002
{
1070
     5
1000

1070
    41
1040
0.5
1070
   342
1005
0
1002
}
  0
MTEXT
  5
30D
102
{ACAD_REACTORS
330
30C
102
}
100
AcDbEntity
  8
0
100
AcDbMText
 10
19.806437
 20
0.197
 30
0.0
 40
0.18
 41
0.0
 71
     9
 72
     1
  1
TO INDUCTION MANIFOLD
1001
ACAD
1000
MTEXTBEGIN
1070
    73
1070
     1
1070
    44
1040
1.0
1070
    74
1070
     0
1000
MTEXTEND
1000
MTEXTBEGIN
1070
    73
1070
     1
1070
    44
1040
1.0
1070
    74
1070
     0
1000
MTEXTEND
1000
MTEXTBEGIN
1070
    73
1070
     1
1070
    44
1040
1.0
1070
    74
1070
     0
1000
MTEXTEND
  0
TEXT
  5
30E
100
AcDbEntity
  8
0
100
AcDbText
 10
10.129699
 20
3.402281
 30
0.0
 40
0.2
  1
-4 AN
100
AcDbText
  0
TEXT
  5
30F
100
AcDbEntity
  8
0
100
AcDbText
 10
14.65146
 20
0.73266
 30
0.0
 40
0.2
  1
-2 AN
100
AcDbText
  0
TEXT
  5
310
100
AcDbEntity
  8
0
100
AcDbText
 10
12.390579
 20
5.626966
 30
0.0
 40
0.2
  1
-6 AN
 50
90.0
100
AcDbText
  0
TEXT
  5
311
100
AcDbEntity
  8
0
100
AcDbText
 10
12.596114
 20
-0.499473
 30
0.0
 40
0.2
  1
-6 AN
 50
90.0
100
AcDbText
  0
LINE
  5
312
100
AcDbEntity
  8
0
100
AcDbLine
 10
34.605113
 20
-2.796103
 30
0.0
 11
34.418113
 21
-2.796103
 31
0.0
  0
LINE
  5
313
100
AcDbEntity
  8
0
100
AcDbLine
 10
34.605113
 20
-2.399175
 30
0.0
 11
34.418113
 21
-2.399175
 31
0.0
  0
LINE
  5
314
100
AcDbEntity
  8
0
100
AcDbLine
 10
34.605113
 20
-2.197639
 30
0.0
 11
34.418113
 21
-2.197639
 31
0.0
  0
LINE
  5
315
100
AcDbEntity
  8
0
100
AcDbLine
 10
34.605113
 20
-2.994567
 30
0.0
 11
34.418113
 21
-2.994567
 31
0.0
  0
LINE
  5
316
100
AcDbEntity
  8
0
100
AcDbLine
 10
34.418113
 20
-2.994567
 30
0.0
 11
34.418113
 21
-2.197639
 31
0.0
  0
LINE
  5
317
100
AcDbEntity
  8
0
  6
CONTINUOUS
100
AcDbLine
 10
35.42391
 20
-2.881389
 30
0.0
 11
35.42391
 21
-2.313889
 31
0.0
  0
LINE
  5
318
100
AcDbEntity
  8
0
  6
CONTINUOUS
100
AcDbLine
 10
35.34391
 20
-2.994567
 30
0.0
 11
35.34391
 21
-2.200711
 31
0.0
  0
LINE
  5
319
100
AcDbEntity
  8
0
100
AcDbLine
 10
34.605113
 20
-2.784639
 30
0.0
 11
34.605113
 21
-2.410639
 31
0.0
  0
LINE
  5
31A
100
AcDbEntity
  8
0
100
AcDbLine
 10
34.605113
 20
-2.994567
 30
0.0
 11
34.605113
 21
-2.197639
 31
0.0
  0
LINE
  5
31B
100
AcDbEntity
  8
0
  6
CONTINUOUS
100
AcDbLine
 10
34.84391
 20
-2.994567
 30
0.0
 11
34.84391
 21
-2.200711
 31
0.0
  0
LINE
  5
31C
100
AcDbEntity
  8
0
  6
CONTINUOUS
100
AcDbLine
 10
34.68391
 20
-2.941389
 30
0.0
 11
34.68391
 21
-2.253889
 31
0.0
  0
LINE
  5
31D
100
AcDbEntity
  8
0
  6
CONTINUOUS
100
AcDbLine
 10
34.84391
 20
-2.796103
 30
0.0
 11
35.34391
 21
-2.796103
 31
0.0
  0
LINE
  5
31E
100
AcDbEntity
  8
0
  6
CONTINUOUS
100
AcDbLine
 10
34.84391
 20
-2.994567
 30
0.0
 11
35.34391
 21
-2.994567
 31
0.0
  0
LINE
  5
31F
100
AcDbEntity
  8
0
  6
CONTINUOUS
100
AcDbLine
 10
34.68391
 20
-2.941389
 30
0.0
 11
34.84391
 21
-2.941389
 31
0.0
  0
LINE
  5
320
100
AcDbEntity
  8
0
  6
CONTINUOUS
100
AcDbLine
 10
34.605113
 20
-2.784639
 30
0.0
 11
34.68391
 21
-2.784639
 31
0.0
  0
LINE
  5
321
100
AcDbEntity
  8
0
  6
CONTINUOUS
100
AcDbLine
 10
35.42391
 20
-2.784639
 30
0.0
 11
35.92391
 21
-2.784639
 31
0.0
  0
ARC
  5
322
100
AcDbEntity
  8
0
  6
CONTINUOUS
100
AcDbCircle
 10
35.36391
 20
-2.881389
 30
0.0
 40
0.06
100
AcDbArc
 50
270.0
 51
0.0
  0
LINE
  5
323
100
AcDbEntity
  8
0
  6
CONTINUOUS
100
AcDbLine
 10
35.34391
 20
-2.941389
 30
0.0
 11
35.36391
 21
-2.941389
 31
0.0
  0
LINE
  5
324
100
AcDbEntity
  8
0
  6
CONTINUOUS
100
AcDbLine
 10
34.84391
 20
-2.399175
 30
0.0
 11
35.34391
 21
-2.399175
 31
0.0
  0
LINE
  5
325
100
AcDbEntity
  8
0
  6
CONTINUOUS
100
AcDbLine
 10
34.84391
 20
-2.200711
 30
0.0
 11
35.34391
 21
-2.200711
 31
0.0
  0
LINE
  5
326
100
AcDbEntity
  8
0
  6
CONTINUOUS
100
AcDbLine
 10
34.605113
 20
-2.410639
 30
0.0
 11
34.68391
 21
-2.410639
 31
0.0
  0
LINE
  5
327
100
AcDbEntity
  8
0
  6
CONTINUOUS
100
AcDbLine
 10
34.68391
 20
-2.253889
 30
0.0
 11
34.84391
 21
-2.253889
 31
0.0
  0
LINE
  5
328
100
AcDbEntity
  8
0
  6
CONTINUOUS
100
AcDbLine
 10
35.42391
 20
-2.410639
 30
0.0
 11
37.453379
 21
-2.410639
 31
0.0
  0
ARC
  5
329
100
AcDbEntity
  8
0
  6
CONTINUOUS
100
AcDbCircle
 10
35.36391
 20
-2.313889
 30
0.0
 40
0.06
100
AcDbArc
 50
0.0
 51
90.0
  0
LINE
  5
32A
100
AcDbEntity
  8
0
  6
CONTINUOUS
100
AcDbLine
 10
35.34391
 20
-2.253889
 30
0.0
 11
35.36391
 21
-2.253889
 31
0.0
  0
LINE
  5
32B
100
AcDbEntity
  8
0
100
AcDbLine
 10
34.605113
 20
8.114192
 30
0.0
 11
34.418113
 21
8.114192
 31
0.0
  0
LINE
  5
32C
100
AcDbEntity
  8
0
100
AcDbLine
 10
34.605113
 20
8.51112
 30
0.0
 11
34.418113
 21
8.51112
 31
0.0
  0
LINE
  5
32D
100
AcDbEntity
  8
0
100
AcDbLine
 10
34.605113
 20
8.712656
 30
0.0
 11
34.418113
 21
8.712656
 31
0.0
  0
LINE
  5
32E
100
AcDbEntity
  8
0
100
AcDbLine
 10
34.605113
 20
7.915727
 30
0.0
 11
34.418113
 21
7.915727
 31
0.0
  0
LINE
  5
32F
100
AcDbEntity
  8
0
100
AcDbLine
 10
34.418113
 20
7.915727
 30
0.0
 11
34.418113
 21
8.712656
 31
0.0
  0
LINE
  5
330
100
AcDbEntity
  8
0
  6
CONTINUOUS
100
AcDbLine
 10
35.42391
 20
8.028906
 30
0.0
 11
35.42391
 21
8.596406
 31
0.0
  0
LINE
  5
331
100
AcDbEntity
  8
0
  6
CONTINUOUS
100
AcDbLine
 10
35.34391
 20
7.915727
 30
0.0
 11
35.34391
 21
8.709584
 31
0.0
  0
LINE
  5
332
100
AcDbEntity
  8
0
100
AcDbLine
 10
34.605113
 20
8.125656
 30
0.0
 11
34.605113
 21
8.499656
 31
0.0
  0
LINE
  5
333
100
AcDbEntity
  8
0
100
AcDbLine
 10
34.605113
 20
7.915727
 30
0.0
 11
34.605113
 21
8.712656
 31
0.0
  0
LINE
  5
334
100
AcDbEntity
  8
0
  6
CONTINUOUS
100
AcDbLine
 10
34.84391
 20
7.915727
 30
0.0
 11
34.84391
 21
8.709584
 31
0.0
  0
LINE
  5
335
100
AcDbEntity
  8
0
  6
CONTINUOUS
100
AcDbLine
 10
34.68391
 20
7.968906
 30
0.0
 11
34.68391
 21
8.656406
 31
0.0
  0
LINE
  5
336
100
AcDbEntity
  8
0
  6
CONTINUOUS
100
AcDbLine
 10
34.84391
 20
8.114192
 30
0.0
 11
35.34391
 21
8.114192
 31
0.0
  0
LINE
  5
337
100
AcDbEntity
  8
0
  6
CONTINUOUS
100
AcDbLine
 10
34.84391
 20
7.915727
 30
0.0
 11
35.34391
 21
7.915727
 31
0.0
  0
LINE
  5
338
100
AcDbEntity
  8
0
  6
CONTINUOUS
100
AcDbLine
 10
34.68391
 20
7.968906
 30
0.0
 11
34.84391
 21
7.968906
 31
0.0
  0
LINE
  5
339
100
AcDbEntity
  8
0
  6
CONTINUOUS
100
AcDbLine
 10
34.605113
 20
8.125656
 30
0.0
 11
34.68391
 21
8.125656
 31
0.0
  0
LINE
  5
33A
100
AcDbEntity
  8
0
  6
CONTINUOUS
100
AcDbLine
 10
35.42391
 20
8.125656
 30
0.0
 11
37.453379
 21
8.125656
 31
0.0
  0
ARC
  5
33B
100
AcDbEntity
  8
0
  6
CONTINUOUS
100
AcDbCircle
 10
35.36391
 20
8.028906
 30
0.0
 40
0.06
100
AcDbArc
 50
270.0
 51
0.0
  0
LINE
  5
33C
100
AcDbEntity
  8
0
  6
CONTINUOUS
100
AcDbLine
 10
35.34391
 20
7.968906
 30
0.0
 11
35.36391
 21
7.968906
 31
0.0
  0
LINE
  5
33D
100
AcDbEntity
  8
0
  6
CONTINUOUS
100
AcDbLine
 10
34.84391
 20
8.51112
 30
0.0
 11
35.34391
 21
8.51112
 31
0.0
  0
LINE
  5
33E
100
AcDbEntity
  8
0
  6
CONTINUOUS
100
AcDbLine
 10
34.84391
 20
8.709584
 30
0.0
 11
35.34391
 21
8.709584
 31
0.0
  0
LINE
  5
33F
100
AcDbEntity
  8
0
  6
CONTINUOUS
100
AcDbLine
 10
34.605113
 20
8.499656
 30
0.0
 11
34.68391
 21
8.499656
 31
0.0
  0
LINE
  5
340
100
AcDbEntity
  8
0
  6
CONTINUOUS
100
AcDbLine
 10
34.68391
 20
8.656406
 30
0.0
 11
34.84391
 21
8.656406
 31
0.0
  0
LINE
  5
341
100
AcDbEntity
  8
0
  6
CONTINUOUS
100
AcDbLine
 10
35.42391
 20
8.499656
 30
0.0
 11
35.92391
 21
8.499656
 31
0.0
  0
ARC
  5
342
100
AcDbEntity
  8
0
  6
CONTINUOUS
100
AcDbCircle
 10
35.36391
 20
8.596406
 30
0.0
 40
0.06
100
AcDbArc
 50
0.0
 51
90.0
  0
LINE
  5
343
100
AcDbEntity
  8
0
  6
CONTINUOUS
100
AcDbLine
 10
35.34391
 20
8.656406
 30
0.0
 11
35.36391
 21
8.656406
 31
0.0
  0
LINE
  5
35E
100
AcDbEntity
  8
0
  6
CONTINUOUS
100
AcDbLine
 10
40.37169
 20
2.338663
 30
0.0
 11
40.37169
 21
3.394492
 31
0.0
  0
LINE
  5
35F
100
AcDbEntity
  8
0
  6
CONTINUOUS
100
AcDbLine
 10
39.70669
 20
2.338663
 30
0.0
 11
39.70669
 21
3.394492
 31
0.0
  0
LINE
  5
362
100
AcDbEntity
  8
0
  6
CONTINUOUS
100
AcDbLine
 10
39.70669
 20
2.338663
 30
0.0
 11
40.37169
 21
2.338663
 31
0.0
  0
LINE
  5
364
100
AcDbEntity
  8
0
  6
CONTINUOUS
100
AcDbLine
 10
39.70669
 20
3.130535
 30
0.0
 11
40.37169
 21
3.130535
 31
0.0
  0
LINE
  5
365
100
AcDbEntity
  8
0
  6
CONTINUOUS
100
AcDbLine
 10
39.70669
 20
3.394492
 30
0.0
 11
40.37169
 21
3.394492
 31
0.0
  0
LINE
  5
366
100
AcDbEntity
  8
0
  6
CONTINUOUS
100
AcDbLine
 10
39.70669
 20
2.60262
 30
0.0
 11
40.37169
 21
2.60262
 31
0.0
  0
LINE
  5
36B
100
AcDbEntity
  8
0
  6
CONTINUOUS
100
AcDbLine
 10
39.49389
 20
2.40939
 30
0.0
 11
39.49389
 21
3.323765
 31
0.0
  0
LINE
  5
36C
100
AcDbEntity
  8
0
  6
CONTINUOUS
100
AcDbLine
 10
39.49389
 20
2.40939
 30
0.0
 11
39.70669
 21
2.40939
 31
0.0
  0
LINE
  5
36E
100
AcDbEntity
  8
0
  6
CONTINUOUS
100
AcDbLine
 10
39.49389
 20
3.323765
 30
0.0
 11
39.70669
 21
3.323765
 31
0.0
  0
LINE
  5
370
100
AcDbEntity
  8
0
  6
CONTINUOUS
100
AcDbLine
 10
40.47809
 20
2.617867
 30
0.0
 11
40.91593
 21
2.617867
 31
0.0
  0
LINE
  5
371
100
AcDbEntity
  8
0
  6
CONTINUOUS
100
AcDbLine
 10
40.47809
 20
3.115287
 30
0.0
 11
40.91593
 21
3.115287
 31
0.0
  0
LINE
  5
372
100
AcDbEntity
  8
0
  6
CONTINUOUS
100
AcDbLine
 10
40.47809
 20
2.48919
 30
0.0
 11
40.47809
 21
3.243965
 31
0.0
  0
ARC
  5
373
100
AcDbEntity
  8
0
  6
CONTINUOUS
100
AcDbCircle
 10
40.39829
 20
2.48919
 30
0.0
 40
0.0798
100
AcDbArc
 50
270.0
 51
0.0
  0
LINE
  5
374
100
AcDbEntity
  8
0
  6
CONTINUOUS
100
AcDbLine
 10
40.37169
 20
2.40939
 30
0.0
 11
40.39829
 21
2.40939
 31
0.0
  0
ARC
  5
375
100
AcDbEntity
  8
0
  6
CONTINUOUS
100
AcDbCircle
 10
40.39829
 20
3.243965
 30
0.0
 40
0.0798
100
AcDbArc
 50
0.0
 51
90.0
  0
LINE
  5
376
100
AcDbEntity
  8
0
  6
CONTINUOUS
100
AcDbLine
 10
40.37169
 20
3.323765
 30
0.0
 11
40.39829
 21
3.323765
 31
0.0
  0
LINE
  5
377
100
AcDbEntity
  8
0
  6
CONTINUOUS
100
AcDbLine
 10
38.243451
 20
4.384374
 30
0.0
 11
39.037308
 21
4.384374
 31
0.0
  0
LINE
  5
37A
100
AcDbEntity
  8
0
  6
CONTINUOUS
100
AcDbLine
 10
38.243451
 20
3.884374
 30
0.0
 11
39.037308
 21
3.884374
 31
0.0
  0
LINE
  5
37B
100
AcDbEntity
  8
0
  6
CONTINUOUS
100
AcDbLine
 10
38.243451
 20
3.884374
 30
0.0
 11
38.243451
 21
4.384374
 31
0.0
  0
LINE
  5
37C
100
AcDbEntity
  8
0
  6
CONTINUOUS
100
AcDbLine
 10
38.441915
 20
3.884374
 30
0.0
 11
38.441915
 21
4.384374
 31
0.0
  0
LINE
  5
37D
100
AcDbEntity
  8
0
  6
CONTINUOUS
100
AcDbLine
 10
38.838843
 20
3.884374
 30
0.0
 11
38.838843
 21
4.384374
 31
0.0
  0
LINE
  5
380
100
AcDbEntity
  8
0
  6
CONTINUOUS
100
AcDbLine
 10
38.296629
 20
3.724374
 30
0.0
 11
38.984129
 21
3.724374
 31
0.0
  0
LINE
  5
383
100
AcDbEntity
  8
0
  6
CONTINUOUS
100
AcDbLine
 10
38.296629
 20
3.724374
 30
0.0
 11
38.296629
 21
3.884374
 31
0.0
  0
LINE
  5
386
100
AcDbEntity
  8
0
  6
CONTINUOUS
100
AcDbLine
 10
38.984129
 20
3.724374
 30
0.0
 11
38.984129
 21
3.884374
 31
0.0
  0
LINE
  5
387
100
AcDbEntity
  8
0
  6
CONTINUOUS
100
AcDbLine
 10
38.827379
 20
4.464374
 30
0.0
 11
38.827379
 21
4.964374
 31
0.0
  0
LINE
  5
388
100
AcDbEntity
  8
0
  6
CONTINUOUS
100
AcDbLine
 10
38.453379
 20
4.464374
 30
0.0
 11
38.453379
 21
7.125656
 31
0.0
  0
LINE
  5
389
100
AcDbEntity
  8
0
  6
CONTINUOUS
100
AcDbLine
 10
38.356629
 20
4.464374
 30
0.0
 11
38.924129
 21
4.464374
 31
0.0
  0
LINE
  5
38A
100
AcDbEntity
  8
0
  6
CONTINUOUS
100
AcDbLine
 10
38.296629
 20
4.384374
 30
0.0
 11
38.296629
 21
4.404374
 31
0.0
  0
ARC
  5
38B
100
AcDbEntity
  8
0
  6
CONTINUOUS
100
AcDbCircle
 10
38.356629
 20
4.404374
 30
0.0
 40
0.06
100
AcDbArc
 50
90.0
 51
180.0
  0
LINE
  5
38C
100
AcDbEntity
  8
0
  6
CONTINUOUS
100
AcDbLine
 10
38.984129
 20
4.384374
 30
0.0
 11
38.984129
 21
4.404374
 31
0.0
  0
ARC
  5
38D
100
AcDbEntity
  8
0
  6
CONTINUOUS
100
AcDbCircle
 10
38.924129
 20
4.404374
 30
0.0
 40
0.06
100
AcDbArc
 50
0.0
 51
90.0
  0
LINE
  5
38E
100
AcDbEntity
  8
0
  6
CONTINUOUS
100
AcDbLine
 10
39.037308
 20
3.884374
 30
0.0
 11
39.037308
 21
4.384374
 31
0.0
  0
LINE
  5
391
100
AcDbEntity
  8
0
  6
CONTINUOUS
100
AcDbLine
 10
38.243451
 20
1.852865
 30
0.0
 11
39.037308
 21
1.852865
 31
0.0
  0
LINE
  5
393
100
AcDbEntity
  8
0
  6
CONTINUOUS
100
AcDbLine
 10
38.243451
 20
1.352865
 30
0.0
 11
39.037308
 21
1.352865
 31
0.0
  0
LINE
  5
394
100
AcDbEntity
  8
0
  6
CONTINUOUS
100
AcDbLine
 10
38.984129
 20
2.012865
 30
0.0
 11
38.984129
 21
1.852865
 31
0.0
  0
LINE
  5
395
100
AcDbEntity
  8
0
  6
CONTINUOUS
100
AcDbLine
 10
38.296629
 20
2.012865
 30
0.0
 11
38.296629
 21
1.852865
 31
0.0
  0
LINE
  5
396
100
AcDbEntity
  8
0
  6
CONTINUOUS
100
AcDbLine
 10
38.243451
 20
1.852865
 30
0.0
 11
38.243451
 21
1.352865
 31
0.0
  0
ARC
  5
397
100
AcDbEntity
  8
0
  6
CONTINUOUS
100
AcDbCircle
 10
38.924129
 20
1.332865
 30
0.0
 40
0.06
100
AcDbArc
 50
270.0
 51
0.0
  0
ARC
  5
398
100
AcDbEntity
  8
0
  6
CONTINUOUS
100
AcDbCircle
 10
38.356629
 20
1.332865
 30
0.0
 40
0.06
100
AcDbArc
 50
180.0
 51
270.0
  0
LINE
  5
399
100
AcDbEntity
  8
0
  6
CONTINUOUS
100
AcDbLine
 10
38.356629
 20
1.272865
 30
0.0
 11
38.924129
 21
1.272865
 31
0.0
  0
LINE
  5
39A
100
AcDbEntity
  8
0
  6
CONTINUOUS
100
AcDbLine
 10
38.453379
 20
1.272865
 30
0.0
 11
38.453379
 21
-1.410639
 31
0.0
  0
LINE
  5
39B
100
AcDbEntity
  8
0
  6
CONTINUOUS
100
AcDbLine
 10
38.827379
 20
1.272865
 30
0.0
 11
38.827379
 21
0.772865
 31
0.0
  0
LINE
  5
39C
100
AcDbEntity
  8
0
  6
CONTINUOUS
100
AcDbLine
 10
38.441915
 20
1.852865
 30
0.0
 11
38.441915
 21
1.352865
 31
0.0
  0
LINE
  5
39D
100
AcDbEntity
  8
0
  6
CONTINUOUS
100
AcDbLine
 10
38.296629
 20
1.352865
 30
0.0
 11
38.296629
 21
1.332865
 31
0.0
  0
LINE
  5
39E
100
AcDbEntity
  8
0
  6
CONTINUOUS
100
AcDbLine
 10
38.838843
 20
1.852865
 30
0.0
 11
38.838843
 21
1.352865
 31
0.0
  0
LINE
  5
39F
100
AcDbEntity
  8
0
  6
CONTINUOUS
100
AcDbLine
 10
38.984129
 20
1.352865
 30
0.0
 11
38.984129
 21
1.332865
 31
0.0
  0
LINE
  5
3A2
100
AcDbEntity
  8
0
  6
CONTINUOUS
100
AcDbLine
 10
38.296629
 20
2.012865
 30
0.0
 11
38.984129
 21
2.012865
 31
0.0
  0
LINE
  5
3A7
100
AcDbEntity
  8
0
  6
CONTINUOUS
100
AcDbLine
 10
39.037308
 20
1.852865
 30
0.0
 11
39.037308
 21
1.352865
 31
0.0
  0
LINE
  5
3B0
100
AcDbEntity
  8
0
  6
CONTINUOUS
100
AcDbLine
 10
38.353379
 20
3.585577
 30
0.0
 11
38.353379
 21
3.724374
 31
0.0
  0
LINE
  5
3B1
100
AcDbEntity
  8
0
  6
CONTINUOUS
100
AcDbLine
 10
38.927379
 20
3.585577
 30
0.0
 11
38.927379
 21
3.724374
 31
0.0
  0
LINE
  5
3B2
100
AcDbEntity
  8
0
  6
CONTINUOUS
100
AcDbLine
 10
38.353379
 20
2.151663
 30
0.0
 11
38.353379
 21
2.012865
 31
0.0
  0
LINE
  5
3B3
100
AcDbEntity
  8
0
  6
CONTINUOUS
100
AcDbLine
 10
38.927379
 20
2.151663
 30
0.0
 11
38.927379
 21
2.012865
 31
0.0
  0
LINE
  5
3B4
100
AcDbEntity
  8
0
100
AcDbLine
 10
39.49389
 20
3.230535
 30
0.0
 11
39.22742
 21
3.230535
 31
0.0
  0
LINE
  5
3B5
100
AcDbEntity
  8
0
100
AcDbLine
 10
39.49389
 20
2.50262
 30
0.0
 11
39.22734
 21
2.50262
 31
0.0
  0
LINE
  5
3B9
100
AcDbEntity
  8
0
100
AcDbLine
 10
38.303379
 20
3.585577
 30
0.0
 11
38.303379
 21
2.151663
 31
0.0
  0
LINE
  5
3BA
100
AcDbEntity
  8
0
100
AcDbLine
 10
38.303379
 20
3.585577
 30
0.0
 11
38.353379
 21
3.585577
 31
0.0
  0
LINE
  5
3BB
100
AcDbEntity
  8
0
100
AcDbLine
 10
38.353379
 20
2.151663
 30
0.0
 11
38.303379
 21
2.151663
 31
0.0
  0
LINE
  5
3BE
100
AcDbEntity
  8
0
100
AcDbLine
 10
38.927379
 20
3.585577
 30
0.0
 11
38.977379
 21
3.585577
 31
0.0
  0
LINE
  5
3BF
100
AcDbEntity
  8
0
100
AcDbLine
 10
38.927379
 20
2.151663
 30
0.0
 11
38.977379
 21
2.151663
 31
0.0
  0
LINE
  5
3C0
100
AcDbEntity
  8
0
100
AcDbLine
 10
38.977379
 20
3.585577
 30
0.0
 11
38.97742
 21
3.480438
 31
0.0
  0
LINE
  5
3C1
100
AcDbEntity
  8
0
100
AcDbLine
 10
38.977379
 20
2.151663
 30
0.0
 11
38.97734
 21
2.252524
 31
0.0
  0
ARC
  5
3C2
100
AcDbEntity
  8
0
100
AcDbCircle
 10
39.22742
 20
3.480535
 30
0.0
 40
0.25
100
AcDbArc
 50
180.022062
 51
270.0
  0
ARC
  5
3C3
100
AcDbEntity
  8
0
100
AcDbCircle
 10
39.22734
 20
2.25262
 30
0.0
 40
0.25
100
AcDbArc
 50
90.0
 51
180.022062
  0
LINE
  5
3C4
100
AcDbEntity
  8
0
100
AcDbLine
 10
39.22742
 20
3.230535
 30
0.0
 11
39.22734
 21
2.50262
 31
0.0
  0
LINE
  5
3C5
100
AcDbEntity
  8
0
100
AcDbLine
 10
38.97742
 20
3.480438
 30
0.0
 11
38.97734
 21
2.252524
 31
0.0
  0
ARC
  5
3CA
100
AcDbEntity
  8
0
  6
CONTINUOUS
100
AcDbCircle
 10
37.453379
 20
7.125656
 30
0.0
 40
1.0
100
AcDbArc
 50
0.0
 51
90.0
  0
ARC
  5
3CB
100
AcDbEntity
  8
0
  6
CONTINUOUS
100
AcDbCircle
 10
37.453379
 20
-1.410639
 30
0.0
 40
1.0
100
AcDbArc
 50
270.0
 51
0.0
  0
LINE
  5
3CC
100
AcDbEntity
  8
0
  6
CONTINUOUS
100
AcDbLine
 10
35.42391
 20
8.500656
 30
0.0
 11
37.453379
 21
8.500656
 31
0.0
  0
ARC
  5
3CD
100
AcDbEntity
  8
0
  6
CONTINUOUS
100
AcDbCircle
 10
37.453379
 20
7.125656
 30
0.0
 40
1.375
100
AcDbArc
 50
0.0
 51
90.0
  0
LINE
  5
3CE
100
AcDbEntity
  8
0
  6
CONTINUOUS
100
AcDbLine
 10
38.828379
 20
4.464374
 30
0.0
 11
38.828379
 21
7.125656
 31
0.0
  0
LINE
  5
3CF
100
AcDbEntity
  8
0
  6
CONTINUOUS
100
AcDbLine
 10
38.828379
 20
1.272865
 30
0.0
 11
38.828379
 21
-1.410639
 31
0.0
  0
ARC
  5
3D0
100
AcDbEntity
  8
0
  6
CONTINUOUS
100
AcDbCircle
 10
37.453379
 20
-1.410639
 30
0.0
 40
1.375
100
AcDbArc
 50
270.0
 51
0.0
  0
LINE
  5
3D1
100
AcDbEntity
  8
0
  6
CONTINUOUS
100
AcDbLine
 10
35.42391
 20
-2.785639
 30
0.0
 11
37.453379
 21
-2.785639
 31
0.0
  0
TEXT
  5
3D3
100
AcDbEntity
  8
0
100
AcDbText
 10
37.882937
 20
5.601686
 30
0.0
 40
0.2
  1
-6 AN
 50
90.0
100
AcDbText
  0
TEXT
  5
3D4
100
AcDbEntity
  8
0
100
AcDbText
 10
37.992027
 20
-0.24042
 30
0.0
 40
0.2
  1
-6 AN
 50
90.0
100
AcDbText
  0
LINE
  5
3D6
100
AcDbEntity
  8
0
100
AcDbLine
 10
15.147371
 20
3.921544
 30
0.0
 11
17.272371
 21
3.921544
 31
0.0
  0
LINE
  5
3D7
100
AcDbEntity
  8
0
100
AcDbLine
 10
15.147371
 20
1.796544
 30
0.0
 11
17.272371
 21
1.796544
 31
0.0
  0
LINE
  5
3D8
100
AcDbEntity
  8
0
100
AcDbLine
 10
17.272371
 20
3.921544
 30
0.0
 11
17.272371
 21
3.254437
 31
0.0
  0
LINE
  5
3D9
100
AcDbEntity
  8
0
100
AcDbLine
 10
15.147371
 20
3.921544
 30
0.0
 11
15.147371
 21
1.796544
 31
0.0
  0
LINE
  5
3DB
100
AcDbEntity
  8
0
100
AcDbLine
 10
15.147371
 20
3.599044
 30
0.0
 11
17.272371
 21
3.599044
 31
0.0
  0
LINE
  5
3DC
100
AcDbEntity
  8
0
100
AcDbLine
 10
15.147371
 20
2.119044
 30
0.0
 11
17.272371
 21
2.119044
 31
0.0
  0
LINE
  5
3DD
100
AcDbEntity
  8
0
100
AcDbLine
 10
15.147371
 20
3.349044
 30
0.0
 11
17.272371
 21
3.349044
 31
0.0
  0
LINE
  5
3DE
100
AcDbEntity
  8
0
100
AcDbLine
 10
15.147371
 20
2.369044
 30
0.0
 11
17.272371
 21
2.369044
 31
0.0
  0
LINE
  5
3DF
100
AcDbEntity
  8
0
100
AcDbLine
 10
15.447371
 20
3.921544
 30
0.0
 11
15.447371
 21
3.599044
 31
0.0
  0
LINE
  5
3E0
100
AcDbEntity
  8
0
100
AcDbLine
 10
16.972371
 20
3.921544
 30
0.0
 11
16.972371
 21
3.599044
 31
0.0
  0
LINE
  5
3E1
100
AcDbEntity
  8
0
100
AcDbLine
 10
15.447371
 20
2.119044
 30
0.0
 11
15.447371
 21
1.796544
 31
0.0
  0
LINE
  5
3E2
100
AcDbEntity
  8
0
100
AcDbLine
 10
16.972371
 20
2.119044
 30
0.0
 11
16.972371
 21
1.796544
 31
0.0
  0
ARC
  5
3E5
100
AcDbEntity
  8
0
100
AcDbCircle
 10
16.209871
 20
2.859044
 30
0.0
 40
0.289943
100
AcDbArc
 50
90.0
 51
270.0
  0
LINE
  5
3E6
100
AcDbEntity
  8
0
100
AcDbLine
 10
15.647371
 20
3.921544
 30
0.0
 11
15.647371
 21
3.599044
 31
0.0
  0
LINE
  5
3E7
100
AcDbEntity
  8
0
100
AcDbLine
 10
16.772371
 20
3.921544
 30
0.0
 11
16.772371
 21
3.599044
 31
0.0
  0
LINE
  5
3E8
100
AcDbEntity
  8
0
100
AcDbLine
 10
15.647371
 20
2.119044
 30
0.0
 11
15.647371
 21
1.796544
 31
0.0
  0
LINE
  5
3E9
100
AcDbEntity
  8
0
100
AcDbLine
 10
16.772371
 20
2.119044
 30
0.0
 11
16.772371
 21
1.796544
 31
0.0
  0
LINE
  5
3EA
100
AcDbEntity
  8
0
100
AcDbLine
 10
16.686814
 20
2.659044
 30
0.0
 11
16.499814
 21
2.659044
 31
0.0
  0
LINE
  5
3EB
100
AcDbEntity
  8
0
100
AcDbLine
 10
16.686814
 20
3.055972
 30
0.0
 11
16.499814
 21
3.055972
 31
0.0
  0
LINE
  5
3EC
100
AcDbEntity
  8
0
100
AcDbLine
 10
16.686814
 20
3.257508
 30
0.0
 11
16.499814
 21
3.257508
 31
0.0
  0
LINE
  5
3ED
100
AcDbEntity
  8
0
100
AcDbLine
 10
16.686814
 20
2.46058
 30
0.0
 11
16.499814
 21
2.46058
 31
0.0
  0
LINE
  5
3EE
100
AcDbEntity
  8
0
100
AcDbLine
 10
16.499814
 20
2.46058
 30
0.0
 11
16.499814
 21
3.257508
 31
0.0
  0
LINE
  5
3EF
100
AcDbEntity
  8
0
  6
CONTINUOUS
100
AcDbLine
 10
17.505611
 20
2.573758
 30
0.0
 11
17.505611
 21
3.141258
 31
0.0
  0
LINE
  5
3F0
100
AcDbEntity
  8
0
  6
CONTINUOUS
100
AcDbLine
 10
17.425611
 20
2.46058
 30
0.0
 11
17.425611
 21
3.254437
 31
0.0
  0
LINE
  5
3F1
100
AcDbEntity
  8
0
100
AcDbLine
 10
16.686814
 20
2.670508
 30
0.0
 11
16.686814
 21
3.044508
 31
0.0
  0
LINE
  5
3F2
100
AcDbEntity
  8
0
100
AcDbLine
 10
16.686814
 20
2.46058
 30
0.0
 11
16.686814
 21
3.257508
 31
0.0
  0
LINE
  5
3F3
100
AcDbEntity
  8
0
  6
CONTINUOUS
100
AcDbLine
 10
16.925611
 20
2.46058
 30
0.0
 11
16.925611
 21
3.254437
 31
0.0
  0
LINE
  5
3F4
100
AcDbEntity
  8
0
  6
CONTINUOUS
100
AcDbLine
 10
16.765611
 20
2.513758
 30
0.0
 11
16.765611
 21
3.201258
 31
0.0
  0
LINE
  5
3F5
100
AcDbEntity
  8
0
  6
CONTINUOUS
100
AcDbLine
 10
16.925611
 20
2.659044
 30
0.0
 11
17.425611
 21
2.659044
 31
0.0
  0
LINE
  5
3F6
100
AcDbEntity
  8
0
  6
CONTINUOUS
100
AcDbLine
 10
16.925611
 20
2.46058
 30
0.0
 11
17.425611
 21
2.46058
 31
0.0
  0
LINE
  5
3F7
100
AcDbEntity
  8
0
  6
CONTINUOUS
100
AcDbLine
 10
16.765611
 20
2.513758
 30
0.0
 11
16.925611
 21
2.513758
 31
0.0
  0
LINE
  5
3F8
100
AcDbEntity
  8
0
  6
CONTINUOUS
100
AcDbLine
 10
16.686814
 20
2.670508
 30
0.0
 11
16.765611
 21
2.670508
 31
0.0
  0
LINE
  5
3F9
100
AcDbEntity
  8
0
  6
CONTINUOUS
100
AcDbLine
 10
17.505611
 20
2.670508
 30
0.0
 11
31.670524
 21
2.670508
 31
0.0
  0
ARC
  5
3FA
100
AcDbEntity
  8
0
  6
CONTINUOUS
100
AcDbCircle
 10
17.445611
 20
2.573758
 30
0.0
 40
0.06
100
AcDbArc
 50
270.0
 51
0.0
  0
LINE
  5
3FB
100
AcDbEntity
  8
0
  6
CONTINUOUS
100
AcDbLine
 10
17.425611
 20
2.513758
 30
0.0
 11
17.445611
 21
2.513758
 31
0.0
  0
LINE
  5
3FC
100
AcDbEntity
  8
0
  6
CONTINUOUS
100
AcDbLine
 10
16.925611
 20
3.055972
 30
0.0
 11
17.425611
 21
3.055972
 31
0.0
  0
LINE
  5
3FD
100
AcDbEntity
  8
0
  6
CONTINUOUS
100
AcDbLine
 10
16.925611
 20
3.254437
 30
0.0
 11
17.425611
 21
3.254437
 31
0.0
  0
LINE
  5
3FE
100
AcDbEntity
  8
0
  6
CONTINUOUS
100
AcDbLine
 10
16.686814
 20
3.044508
 30
0.0
 11
16.765611
 21
3.044508
 31
0.0
  0
LINE
  5
3FF
100
AcDbEntity
  8
0
  6
CONTINUOUS
100
AcDbLine
 10
16.765611
 20
3.201258
 30
0.0
 11
16.925611
 21
3.201258
 31
0.0
  0
LINE
  5
400
100
AcDbEntity
  8
0
  6
CONTINUOUS
100
AcDbLine
 10
17.505611
 20
3.044508
 30
0.0
 11
18.005611
 21
3.044508
 31
0.0
  0
ARC
  5
401
100
AcDbEntity
  8
0
  6
CONTINUOUS
100
AcDbCircle
 10
17.445611
 20
3.141258
 30
0.0
 40
0.06
100
AcDbArc
 50
0.0
 51
90.0
  0
LINE
  5
402
100
AcDbEntity
  8
0
  6
CONTINUOUS
100
AcDbLine
 10
17.425611
 20
3.201258
 30
0.0
 11
17.445611
 21
3.201258
 31
0.0
  0
LINE
  5
403
100
AcDbEntity
  8
0
100
AcDbLine
 10
16.209871
 20
3.148987
 30
0.0
 11
16.499814
 21
3.148987
 31
0.0
  0
LINE
  5
404
100
AcDbEntity
  8
0
100
AcDbLine
 10
16.209871
 20
2.569101
 30
0.0
 11
16.499814
 21
2.569101
 31
0.0
  0
LINE
  5
405
100
AcDbEntity
  8
0
100
AcDbLine
 10
17.272371
 20
1.796544
 30
0.0
 11
17.272371
 21
2.46058
 31
0.0
  0
TEXT
  5
407
100
AcDbEntity
  8
0
100
AcDbText
 10
17.694811
 20
3.367708
 30
0.0
 40
0.2
  1
-6 AN
100
AcDbText
  0
MTEXT
  5
409
100
AcDbEntity
  8
0
100
AcDbMText
 10
23.698567
 20
2.777129
 30
0.0
 40
0.18
 41
0.0
 71
     9
 72
     1
  1
FUEL RETURN TO SELECTOR VALVE
1001
ACAD
1000
MTEXTBEGIN
1070
    73
1070
     1
1070
    44
1040
1.0
1070
    74
1070
     0
1000
MTEXTEND
1000
MTEXTBEGIN
1070
    73
1070
     1
1070
    44
1040
1.0
1070
    74
1070
     0
1000
MTEXTEND
1000
MTEXTBEGIN
1070
    73
1070
     1
1070
    44
1040
1.0
1070
    74
1070
     0
1000
MTEXTEND
  0
LEADER
  5
40A
100
AcDbEntity
  8
0
100
AcDbLeader
  3
STANDARD
 73
     0
 74
     0
 75
     1
 40
0.48
 41
5.76
 76
     3
 10
14.00658
 20
4.33899
 30
0.0
 10
15.311642
 20
5.822759
 30
0.0
 10
15.491642
 20
5.822759
 30
0.0
 77
   256
340
40B
213
0.0
223
-0.09
233
0.0
1001
ACAD
1000
DSTYLE
1002
{
1070
     5
1000

1070
    77
1070
     0
1070
   147
1040
0.09
1070
   342
1005
0
1002
}
  0
MTEXT
  5
40B
102
{ACAD_REACTORS
330
40A
102
}
100
AcDbEntity
  8
0
100
AcDbMText
 10
15.581642
 20
5.912759
 30
0.0
 40
0.18
 41
0.0
 71
     1
 72
     1
  1
FUEL PRESSURE REGULATOR TOP VIEW\PSET PRESSURE @42 LBS. STATIC.
1001
ACAD
1000
MTEXTBEGIN
1070
    73
1070
     1
1070
    44
1040
1.0
1070
    74
1070
     0
1000
MTEXTEND
1000
MTEXTBEGIN
1070
    73
1070
     1
1070
    44
1040
1.0
1070
    74
1070
     0
1000
MTEXTEND
1000
MTEXTBEGIN
1070
    73
1070
     1
1070
    44
1040
1.0
1070
    74
1070
     0
1000
MTEXTEND
  0
LEADER
  5
40D
100
AcDbEntity
  8
0
100
AcDbLeader
  3
STANDARD
 73
     0
 74
     0
 75
     1
 40
0.48
 41
6.3
 76
     3
 10
16.234174
 20
4.065665
 30
0.0
 10
16.796705
 20
4.846595
 30
0.0
 10
16.976705
 20
4.846595
 30
0.0
 77
   256
340
40E
213
0.0
223
-0.09
233
0.0
1001
ACAD
1000
DSTYLE
1002
{
1070
     5
1000

1070
    77
1070
     0
1070
   147
1040
0.09
1070
   342
1005
0
1002
}
  0
MTEXT
  5
40E
102
{ACAD_REACTORS
330
40D
102
}
100
AcDbEntity
  8
0
100
AcDbMText
 10
17.066705
 20
4.936595
 30
0.0
 40
0.18
 41
0.0
 71
     1
 72
     1
  1
FUEL PRESSURE REGULATOR BOTTOM VIEW\PSHOWING FUEL RETURN 
1001
ACAD
1000
MTEXTBEGIN
1070
    73
1070
     1
1070
    44
1040
1.0
1070
    74
1070
     0
1000
MTEXTEND
1000
MTEXTBEGIN
1070
    73
1070
     1
1070
    44
1040
1.0
1070
    74
1070
     0
1000
MTEXTEND
1000
MTEXTBEGIN
1070
    73
1070
     1
1070
    44
1040
1.0
1070
    74
1070
     0
1000
MTEXTEND
  0
TEXT
  5
412
100
AcDbEntity
  8
0
100
AcDbText
 10
25.018288
 20
0.619057
 30
0.0
 40
0.4
  1
FUEL SYSTEM LAYOUT
100
AcDbText
  0
TEXT
  5
413
100
AcDbEntity
  8
0
100
AcDbText
 10
21.849754
 20
9.095159
 30
0.0
 40
0.2
  1
FUEL RAIL AND FUEL INJECTORS
100
AcDbText
  0
TEXT
  5
524
100
AcDbEntity
  8
0
100
AcDbText
 10
70.719749
 20
16.804584
 30
0.0
 40
0.2
  1
FUEL FILTER
100
AcDbText
  0
TEXT
  5
525
100
AcDbEntity
  8
0
100
AcDbText
 10
62.877272
 20
16.726227
 30
0.0
 40
0.2
  1
FUEL PUMP
100
AcDbText
  0
LINE
  5
5D8
100
AcDbEntity
  8
0
100
AcDbLine
 10
44.355056
 20
3.115287
 30
0.0
 11
49.337883
 21
3.115287
 31
0.0
  0
LINE
  5
627
100
AcDbEntity
  8
0
  6
CONTINUOUS
100
AcDbLine
 10
51.291454
 20
5.030932
 30
0.0
 11
51.290356
 21
11.834683
 31
0.0
  0
LINE
  5
63C
100
AcDbEntity
  8
0
  6
CONTINUOUS
100
AcDbLine
 10
51.665454
 20
5.030932
 30
0.0
 11
51.665454
 21
6.31547
 31
0.0
  0
LINE
  5
6D5
100
AcDbEntity
  8
0
100
AcDbLine
 10
35.545018
 20
-0.640896
 30
0.0
 11
33.156134
 21
2.009523
 31
0.0
  0
ARC
  5
6D7
100
AcDbEntity
  8
0
100
AcDbCircle
 10
31.670524
 20
0.670508
 30
0.0
 40
2.0
100
AcDbArc
 50
42.029063
 51
90.0
  0
LINE
  5
6D8
100
AcDbEntity
  8
0
100
AcDbLine
 10
43.072344
 20
-1.301881
 30
0.0
 11
38.828379
 21
-1.301881
 31
0.0
  0
ARC
  5
6D9
100
AcDbEntity
  8
0
100
AcDbCircle
 10
37.030629
 20
0.698119
 30
0.0
 40
2.0
100
AcDbArc
 50
222.029063
 51
270.0
  0
LINE
  5
6DA
100
AcDbEntity
  8
0
  6
CONTINUOUS
100
AcDbLine
 10
17.505611
 20
3.044508
 30
0.0
 11
31.670524
 21
3.044508
 31
0.0
  0
ARC
  5
6DB
100
AcDbEntity
  8
0
100
AcDbCircle
 10
31.670524
 20
0.670508
 30
0.0
 40
2.374
100
AcDbArc
 50
42.029063
 51
90.0
  0
LINE
  5
6DC
100
AcDbEntity
  8
0
100
AcDbLine
 10
35.822827
 20
-0.3905
 30
0.0
 11
33.433944
 21
2.259919
 31
0.0
  0
ARC
  5
6DD
100
AcDbEntity
  8
0
100
AcDbCircle
 10
37.030629
 20
0.698119
 30
0.0
 40
1.626
100
AcDbArc
 50
222.029063
 51
270.0
  0
LINE
  5
6DE
100
AcDbEntity
  8
0
100
AcDbLine
 10
43.119768
 20
-0.927881
 30
0.0
 11
38.828379
 21
-0.927881
 31
0.0
  0
LINE
  5
6DF
100
AcDbEntity
  8
0
100
AcDbLine
 10
38.453379
 20
-0.927881
 30
0.0
 11
37.030629
 21
-0.927881
 31
0.0
  0
LINE
  5
6E0
100
AcDbEntity
  8
0
100
AcDbLine
 10
38.453379
 20
-1.301881
 30
0.0
 11
37.030629
 21
-1.301881
 31
0.0
  0
MTEXT
  5
6E7
100
AcDbEntity
  8
0
100
AcDbMText
 10
28.373316
 20
4.683076
 30
0.0
 40
0.18
 41
0.0
 71
     9
 72
     1
  1
\A1; 
1001
ACAD
1000
MTEXTBEGIN
1070
    73
1070
     1
1070
    44
1040
1.0
1070
    74
1070
     0
1000
MTEXTEND
1000
MTEXTBEGIN
1070
    73
1070
     1
1070
    44
1040
1.0
1070
    74
1070
     0
1000
MTEXTEND
1000
MTEXTBEGIN
1070
    73
1070
     1
1070
    44
1040
1.0
1070
    74
1070
     0
1000
MTEXTEND
  0
LEADER
  5
6ED
100
AcDbEntity
  8
0
100
AcDbLeader
  3
STANDARD
 40
0.18
 41
0.18
 76
     2
 10
34.705535
 20
-3.505211
 30
0.0
 10
37.798902
 20
-3.505211
 30
0.0
 77
   256
211
-1.0
221
0.0000000000000001
231
0.0
213
0.0
223
-0.09
233
0.0
1001
ACAD
1000
DSTYLE
1002
{
1070
     5
1000

1070
    41
1040
0.5
1070
   342
1005
0
1002
}
  0
LEADER
  5
6EF
100
AcDbEntity
  8
0
100
AcDbLeader
  3
STANDARD
 40
0.18
 41
0.18
 76
     2
 10
34.816508
 20
9.300981
 30
0.0
 10
37.909875
 20
9.300981
 30
0.0
 77
   256
211
-1.0
221
0.0000000000000001
231
0.0
213
0.0
223
-0.09
233
0.0
1001
ACAD
1000
DSTYLE
1002
{
1070
     5
1000

1070
    41
1040
0.5
1070
    77
1070
     0
1070
   147
1040
0.09
1070
   342
1005
0
1002
}
  0
LINE
  5
72C
100
AcDbEntity
  8
0
100
AcDbLine
 10
12.8864
 20
-0.927881
 30
0.0
 11
13.021944
 21
-0.927881
 31
0.0
  0
LINE
  5
72D
100
AcDbEntity
  8
0
100
AcDbLine
 10
13.396963
 20
-0.927881
 30
0.0
 11
15.009586
 21
-0.927881
 31
0.0
  0
SPLINE
  5
72E
100
AcDbEntity
  8
0
100
AcDbSpline
210
0.0
220
0.0
230
-1.0
 70
     8
 71
     3
 72
    10
 73
     6
 74
     4
 42
0.0000001
 43
0.0000001
 44
0.0000000001
 40
0.0
 40
0.0
 40
0.0
 40
0.0
 40
0.140109611052894
 40
0.2910054631811772
 40
0.5090119253667251
 40
0.5090119253667251
 40
0.5090119253667251
 40
0.5090119253667251
 10
15.02618475661305
 20
-1.174680897797457
 30
0.0
 10
14.98352568967708
 20
-1.144392147205286
 30
0.0
 10
14.89492347717153
 20
-1.081482887597632
 30
0.0
 10
15.04505232994341
 20
-0.8316406644789699
 30
0.0
 10
15.00890594091859
 20
-1.028899375402062
 30
0.0
 10
14.98754487570884
 20
-1.145471356750602
 30
0.0
 11
15.02618475661305
 21
-1.174680897797457
 31
0.0
 11
14.93864273694464
 21
-1.065286666222988
 31
0.0
 11
15.00100629195003
 21
-0.9278808977974575
 31
0.0
 11
14.98754487570884
 21
-1.145471356750602
 31
0.0
  0
LEADER
  5
731
100
AcDbEntity
  8
0
100
AcDbLeader
  3
STANDARD
 73
     0
 40
0.18
 41
0.18
 76
     2
 10
20.729061
 20
-1.064149
 30
0.0
 10
18.904657
 20
-1.064149
 30
0.0
 77
   256
340
732
213
0.0
223
0.09
233
0.0
1001
ACAD
1000
DSTYLE
1002
{
1070
     5
1000

1070
    41
1040
0.5
1070
   342
1005
0
1002
}
  0
MTEXT
  5
732
102
{ACAD_REACTORS
330
731
102
}
100
AcDbEntity
  8
0
100
AcDbMText
 10
18.814657
 20
-1.154149
 30
0.0
 40
0.18
 41
0.0
 71
     9
 72
     1
  1
\A1; 
1001
ACAD
1000
MTEXTBEGIN
1070
    73
1070
     1
1070
    44
1040
1.0
1070
    74
1070
     0
1000
MTEXTEND
1000
MTEXTBEGIN
1070
    73
1070
     1
1070
    44
1040
1.0
1070
    74
1070
     0
1000
MTEXTEND
1000
MTEXTBEGIN
1070
    73
1070
     1
1070
    44
1040
1.0
1070
    74
1070
     0
1000
MTEXTEND
  0
ARC
  5
75A
100
AcDbEntity
  8
EAGLELEFT
100
AcDbCircle
 39
0.013219
 10
10.625489
 20
36.854646
 30
0.0
 40
0.392429
100
AcDbArc
 50
22.110708
 51
34.662407
1001
ACAD
1000
RTLwPs
1070
   136
  0
ARC
  5
75B
100
AcDbEntity
  8
EAGLELEFT
100
AcDbCircle
 39
0.013219
 10
10.812356
 20
36.983857
 30
0.0
 40
0.16524
100
AcDbArc
 50
34.662407
 51
94.689758
1001
ACAD
1000
RTLwPs
1070
   136
  0
ARC
  5
75C
100
AcDbEntity
  8
EAGLELEFT
100
AcDbCircle
 10
6.38429
 20
19.447976
 30
0.0
 40
18.686013
100
AcDbArc
 50
78.998718
 51
84.72834
1001
ACAD
1000
RTLwPs
1070
   136
  0
ARC
  5
75D
100
AcDbEntity
  8
EAGLELEFT
100
AcDbCircle
 10
10.679334
 20
33.042597
 30
0.0
 40
4.311181
100
AcDbArc
 50
91.781839
 51
124.255886
1001
ACAD
1000
RTLwPs
1070
   136
  0
ARC
  5
75E
100
AcDbEntity
  8
EAGLELEFT
100
AcDbCircle
 10
10.635553
 20
32.646098
 30
0.0
 40
4.856562
100
AcDbArc
 50
94.619496
 51
135.230194
1001
ACAD
1000
RTLwPs
1070
   136
  0
ARC
  5
75F
100
AcDbEntity
  8
EAGLELEFT
100
AcDbCircle
 10
11.144753
 20
32.931968
 30
0.0
 40
4.230741
100
AcDbArc
 50
94.689758
 51
128.989447
1001
ACAD
1000
RTLwPs
1070
   136
  0
ARC
  5
760
100
AcDbEntity
  8
EAGLELEFT
100
AcDbCircle
 10
9.593338
 20
38.985498
 30
0.0
 40
1.054263
100
AcDbArc
 50
247.284661
 51
267.146334
1001
ACAD
1000
RTLwPs
1070
   136
  0
ARC
  5
761
100
AcDbEntity
  8
EAGLELEFT
100
AcDbCircle
 10
9.984556
 20
39.563194
 30
0.0
 40
1.576713
100
AcDbArc
 50
242.893807
 51
259.790032
1001
ACAD
1000
RTLwPs
1070
   136
  0
ARC
  5
762
100
AcDbEntity
  8
EAGLELEFT
100
AcDbCircle
 10
8.147466
 20
34.013549
 30
0.0
 40
4.471246
100
AcDbArc
 50
64.980191
 51
91.331451
1001
ACAD
1000
RTLwPs
1070
   136
  0
ARC
  5
763
100
AcDbEntity
  8
EAGLELEFT
100
AcDbCircle
 10
6.569076
 20
20.851982
 30
0.0
 40
17.116392
100
AcDbArc
 50
78.841421
 51
88.173318
1001
ACAD
1000
RTLwPs
1070
   136
  0
ARC
  5
764
100
AcDbEntity
  8
EAGLELEFT
100
AcDbCircle
 10
5.875134
 20
36.963832
 30
0.0
 40
1.590026
100
AcDbArc
 50
325.637642
 51
38.778173
1001
ACAD
1000
RTLwPs
1070
   136
  0
ARC
  5
765
100
AcDbEntity
  8
EAGLELEFT
100
AcDbCircle
 10
9.77903
 20
33.246716
 30
0.0
 40
3.465269
100
AcDbArc
 50
109.102628
 51
123.984805
1001
ACAD
1000
RTLwPs
1070
   136
  0
ARC
  5
766
100
AcDbEntity
  8
EAGLELEFT
100
AcDbCircle
 10
7.050115
 20
37.205692
 30
0.0
 40
1.343771
100
AcDbArc
 50
306.109383
 51
333.491521
1001
ACAD
1000
RTLwPs
1070
   136
  0
ARC
  5
767
100
AcDbEntity
  8
EAGLELEFT
100
AcDbCircle
 10
8.129162
 20
36.605074
 30
0.0
 40
0.5226
100
AcDbArc
 50
312.595474
 51
350.760718
1001
ACAD
1000
RTLwPs
1070
   136
  0
ARC
  5
768
100
AcDbEntity
  8
EAGLELEFT
100
AcDbCircle
 10
7.639638
 20
37.202904
 30
0.0
 40
1.270811
100
AcDbArc
 50
63.224328
 51
98.498759
1001
ACAD
1000
RTLwPs
1070
   136
  0
ARC
  5
769
100
AcDbEntity
  8
EAGLELEFT
100
AcDbCircle
 10
7.993412
 20
38.255442
 30
0.0
 40
0.233595
100
AcDbArc
 50
20.554161
 51
77.600507
1001
ACAD
1000
RTLwPs
1070
   136
  0
ARC
  5
76A
100
AcDbEntity
  8
EAGLELEFT
100
AcDbCircle
 10
7.112446
 20
37.192277
 30
0.0
 40
1.312134
100
AcDbArc
 50
41.106481
 51
75.010138
1001
ACAD
1000
RTLwPs
1070
   136
  0
ARC
  5
76B
100
AcDbEntity
  8
EAGLELEFT
100
AcDbCircle
 10
8.124564
 20
38.394046
 30
0.0
 40
0.045002
100
AcDbArc
 50
64.013902
 51
64.484841
1001
ACAD
1000
RTLwPs
1070
   136
  0
ARC
  5
76C
100
AcDbEntity
  8
EAGLELEFT
100
AcDbCircle
 10
9.422853
 20
37.971689
 30
0.0
 40
0.26156
100
AcDbArc
 50
135.576921
 51
163.989433
1001
ACAD
1000
RTLwPs
1070
   136
  0
ARC
  5
76D
100
AcDbEntity
  8
EAGLELEFT
100
AcDbCircle
 10
9.196164
 20
38.036737
 30
0.0
 40
0.025723
100
AcDbArc
 50
163.989433
 51
247.284661
1001
ACAD
1000
RTLwPs
1070
   136
  0
ARC
  5
76E
100
AcDbEntity
  8
EAGLELEFT
100
AcDbCircle
 10
9.254421
 20
38.136764
 30
0.0
 40
0.025723
100
AcDbArc
 50
62.893807
 51
135.576921
1001
ACAD
1000
RTLwPs
1070
   136
  0
ARC
  5
76F
100
AcDbEntity
  8
EAGLELEFT
100
AcDbCircle
 10
10.143011
 20
37.074953
 30
0.0
 40
0.849156
100
AcDbArc
 50
355.095535
 51
86.29576
1001
ACAD
1000
RTLwPs
1070
   136
  0
ARC
  5
770
100
AcDbEntity
  8
EAGLELEFT
100
AcDbCircle
 10
9.802703
 20
36.967729
 30
0.0
 40
0.835974
100
AcDbArc
 50
27.342112
 51
79.840502
1001
ACAD
1000
RTLwPs
1070
   136
  0
ARC
  5
771
100
AcDbEntity
  8
EAGLELEFT
100
AcDbCircle
 10
9.802703
 20
36.967729
 30
0.0
 40
0.681638
100
AcDbArc
 50
49.607928
 51
83.359481
1001
ACAD
1000
RTLwPs
1070
   136
  0
ARC
  5
772
100
AcDbEntity
  8
EAGLELEFT
100
AcDbCircle
 10
9.819049
 20
34.335188
 30
0.0
 40
3.607095
100
AcDbArc
 50
83.971589
 51
94.172281
1001
ACAD
1000
RTLwPs
1070
   136
  0
ARC
  5
773
100
AcDbEntity
  8
EAGLELEFT
100
AcDbCircle
 10
9.547254
 20
38.060996
 30
0.0
 40
0.128613
100
AcDbArc
 50
267.146334
 51
274.172281
1001
ACAD
1000
RTLwPs
1070
   136
  0
ARC
  5
774
100
AcDbEntity
  8
EAGLELEFT
100
AcDbCircle
 10
9.814009
 20
38.775679
 30
0.0
 40
0.771956
100
AcDbArc
 50
261.887661
 51
286.744778
1001
ACAD
1000
RTLwPs
1070
   136
  0
ARC
  5
775
100
AcDbEntity
  8
EAGLELEFT
100
AcDbCircle
 10
10.031969
 20
38.051235
 30
0.0
 40
0.015434
100
AcDbArc
 50
286.744778
 51
64.980191
1001
ACAD
1000
RTLwPs
1070
   136
  0
MTEXT
  5
881
100
AcDbEntity
  8
0
100
AcDbMText
 10
60.410026
 20
0.549085
 30
0.0
 40
0.18
 41
0.0
 71
     9
 72
     1
  1
\A1; 
1001
ACAD
1000
MTEXTBEGIN
1070
    73
1070
     1
1070
    44
1040
1.0
1070
    74
1070
     0
1000
MTEXTEND
1000
MTEXTBEGIN
1070
    73
1070
     1
1070
    44
1040
1.0
1070
    74
1070
     0
1000
MTEXTEND
  0
LINE
  5
986
100
AcDbEntity
  8
0
  6
CONTINUOUS
100
AcDbLine
 10
74.894757
 20
17.187116
 30
0.0
 11
75.559757
 21
17.187116
 31
0.0
  0
LINE
  5
987
100
AcDbEntity
  8
0
  6
CONTINUOUS
100
AcDbLine
 10
74.894757
 20
17.451074
 30
0.0
 11
75.559757
 21
17.451074
 31
0.0
  0
LINE
  5
988
100
AcDbEntity
  8
0
  6
CONTINUOUS
100
AcDbLine
 10
74.894757
 20
16.395244
 30
0.0
 11
75.559757
 21
16.395244
 31
0.0
  0
LINE
  5
989
100
AcDbEntity
  8
0
  6
CONTINUOUS
100
AcDbLine
 10
74.894757
 20
16.659202
 30
0.0
 11
75.559757
 21
16.659202
 31
0.0
  0
LINE
  5
98A
100
AcDbEntity
  8
0
  6
CONTINUOUS
100
AcDbLine
 10
75.559757
 20
17.451074
 30
0.0
 11
75.559757
 21
16.395244
 31
0.0
  0
LINE
  5
98B
100
AcDbEntity
  8
0
  6
CONTINUOUS
100
AcDbLine
 10
75.666157
 20
17.300546
 30
0.0
 11
75.666157
 21
16.545771
 31
0.0
  0
LINE
  5
98D
100
AcDbEntity
  8
0
  6
CONTINUOUS
100
AcDbLine
 10
75.559757
 20
16.465971
 30
0.0
 11
75.586357
 21
16.465971
 31
0.0
  0
ARC
  5
98E
100
AcDbEntity
  8
0
  6
CONTINUOUS
100
AcDbCircle
 10
75.586357
 20
16.545771
 30
0.0
 40
0.0798
100
AcDbArc
 50
270.0
 51
0.0
  0
LINE
  5
990
100
AcDbEntity
  8
0
  6
CONTINUOUS
100
AcDbLine
 10
75.559757
 20
17.380346
 30
0.0
 11
75.586357
 21
17.380346
 31
0.0
  0
ARC
  5
991
100
AcDbEntity
  8
0
  6
CONTINUOUS
100
AcDbCircle
 10
75.586357
 20
17.300546
 30
0.0
 40
0.0798
100
AcDbArc
 50
0.0
 51
90.0
  0
LINE
  5
992
100
AcDbEntity
  8
0
100
AcDbLine
 10
59.848027
 20
17.304244
 30
0.0
 11
59.848027
 21
16.527212
 31
0.0
  0
LINE
  5
993
100
AcDbEntity
  8
0
100
AcDbLine
 10
59.848027
 20
16.517263
 30
0.0
 11
59.848027
 21
17.314192
 31
0.0
  0
LINE
  5
994
100
AcDbEntity
  8
0
  6
CONTINUOUS
100
AcDbLine
 10
58.842229
 20
16.630442
 30
0.0
 11
58.842229
 21
17.197942
 31
0.0
  0
LINE
  5
995
100
AcDbEntity
  8
0
  6
CONTINUOUS
100
AcDbLine
 10
58.922229
 20
16.517263
 30
0.0
 11
58.922229
 21
17.31112
 31
0.0
  0
LINE
  5
996
100
AcDbEntity
  8
0
100
AcDbLine
 10
59.661027
 20
16.727192
 30
0.0
 11
59.661027
 21
17.101192
 31
0.0
  0
LINE
  5
997
100
AcDbEntity
  8
0
100
AcDbLine
 10
59.661027
 20
16.517263
 30
0.0
 11
59.661027
 21
17.314192
 31
0.0
  0
LINE
  5
998
100
AcDbEntity
  8
0
  6
CONTINUOUS
100
AcDbLine
 10
59.422229
 20
16.517263
 30
0.0
 11
59.422229
 21
17.31112
 31
0.0
  0
LINE
  5
999
100
AcDbEntity
  8
0
  6
CONTINUOUS
100
AcDbLine
 10
59.582229
 20
16.570442
 30
0.0
 11
59.582229
 21
17.257942
 31
0.0
  0
LINE
  5
99A
100
AcDbEntity
  8
0
100
AcDbLine
 10
74.328447
 20
17.451074
 30
0.0
 11
74.328447
 21
16.391159
 31
0.0
  0
LINE
  5
99B
100
AcDbEntity
  8
0
100
AcDbLine
 10
74.577157
 20
17.451074
 30
0.0
 11
74.577157
 21
16.391159
 31
0.0
  0
LINE
  5
99C
100
AcDbEntity
  8
0
100
AcDbLine
 10
74.577157
 20
17.171869
 30
0.0
 11
74.577157
 21
16.674449
 31
0.0
  0
LINE
  5
99D
100
AcDbEntity
  8
0
  6
CONTINUOUS
100
AcDbLine
 10
74.894757
 20
17.451074
 30
0.0
 11
74.894757
 21
16.395244
 31
0.0
  0
LINE
  5
99E
100
AcDbEntity
  8
0
  6
CONTINUOUS
100
AcDbLine
 10
74.681957
 20
17.380346
 30
0.0
 11
74.681957
 21
16.465971
 31
0.0
  0
LINE
  5
99F
100
AcDbEntity
  8
0
100
AcDbLine
 10
74.328447
 20
18.046116
 30
0.0
 11
74.328447
 21
15.796116
 31
0.0
  0
LINE
  5
9A0
100
AcDbEntity
  8
0
100
AcDbLine
 10
69.328447
 20
18.046116
 30
0.0
 11
69.328447
 21
15.796116
 31
0.0
  0
LINE
  5
9A1
100
AcDbEntity
  8
0
  6
CONTINUOUS
100
AcDbLine
 10
68.097137
 20
16.391159
 30
0.0
 11
68.097137
 21
17.446988
 31
0.0
  0
LINE
  5
9A2
100
AcDbEntity
  8
0
  6
CONTINUOUS
100
AcDbLine
 10
67.990737
 20
16.541686
 30
0.0
 11
67.990737
 21
17.296461
 31
0.0
  0
LINE
  5
9A3
100
AcDbEntity
  8
0
100
AcDbLine
 10
69.328447
 20
16.391159
 30
0.0
 11
69.328447
 21
17.451074
 31
0.0
  0
LINE
  5
9A4
100
AcDbEntity
  8
0
100
AcDbLine
 10
69.079737
 20
16.391159
 30
0.0
 11
69.079737
 21
17.451074
 31
0.0
  0
LINE
  5
9A5
100
AcDbEntity
  8
0
  6
CONTINUOUS
100
AcDbLine
 10
68.974937
 20
16.461886
 30
0.0
 11
68.974937
 21
17.376261
 31
0.0
  0
LINE
  5
9A6
100
AcDbEntity
  8
0
100
AcDbLine
 10
69.079737
 20
16.670364
 30
0.0
 11
69.079737
 21
17.167784
 31
0.0
  0
LINE
  5
9A7
100
AcDbEntity
  8
0
  6
CONTINUOUS
100
AcDbLine
 10
68.762137
 20
16.391159
 30
0.0
 11
68.762137
 21
17.446988
 31
0.0
  0
LINE
  5
9A8
100
AcDbEntity
  8
0
100
AcDbLine
 10
65.988027
 20
17.600728
 30
0.0
 11
65.988027
 21
16.233334
 31
0.0
  0
LINE
  5
9A9
100
AcDbEntity
  8
0
100
AcDbLine
 10
66.236737
 20
17.167784
 30
0.0
 11
66.236737
 21
16.670364
 31
0.0
  0
LINE
  5
9AA
100
AcDbEntity
  8
0
  6
CONTINUOUS
100
AcDbLine
 10
66.341537
 20
17.376261
 30
0.0
 11
66.341537
 21
16.461886
 31
0.0
  0
LINE
  5
9AB
100
AcDbEntity
  8
0
  6
CONTINUOUS
100
AcDbLine
 10
67.325737
 20
17.296461
 30
0.0
 11
67.325737
 21
16.541686
 31
0.0
  0
LINE
  5
9AC
100
AcDbEntity
  8
0
  6
CONTINUOUS
100
AcDbLine
 10
67.219337
 20
17.446988
 30
0.0
 11
67.219337
 21
16.391159
 31
0.0
  0
LINE
  5
9AD
100
AcDbEntity
  8
0
100
AcDbLine
 10
65.988027
 20
17.446988
 30
0.0
 11
65.988027
 21
16.387074
 31
0.0
  0
LINE
  5
9AE
100
AcDbEntity
  8
0
100
AcDbLine
 10
66.236737
 20
17.446988
 30
0.0
 11
66.236737
 21
16.387074
 31
0.0
  0
LINE
  5
9AF
100
AcDbEntity
  8
0
  6
CONTINUOUS
100
AcDbLine
 10
66.554337
 20
17.446988
 30
0.0
 11
66.554337
 21
16.391159
 31
0.0
  0
LWPOLYLINE
  5
9B0
100
AcDbEntity
  8
0
  6
CONTINUOUS
 62
     7
100
AcDbPolyline
 90
       39
 70
     0
 43
0.0
 10
62.203027
 20
18.100728
 10
62.203027
 20
18.099996
 10
62.203027
 20
18.092663
 10
62.203027
 20
18.077497
 10
62.203027
 20
18.0546
 10
62.203027
 20
18.024124
 10
62.203027
 20
17.986272
 10
62.203027
 20
17.941296
 10
62.203027
 20
17.889494
 10
62.203027
 20
17.831212
 10
62.203027
 20
17.766838
 10
62.203027
 20
17.6968
 10
62.203027
 20
17.621564
 10
62.203027
 20
17.541631
 10
62.203027
 20
17.457532
 10
62.203027
 20
17.369828
 10
62.203027
 20
17.279102
 10
62.203027
 20
17.185957
 10
62.203027
 20
17.091015
 10
62.203027
 20
16.994905
 10
62.203027
 20
16.898269
 10
62.203027
 20
16.801749
 10
62.203027
 20
16.705988
 10
62.203027
 20
16.611622
 10
62.203027
 20
16.51928
 10
62.203027
 20
16.429577
 10
62.203027
 20
16.343109
 10
62.203027
 20
16.260451
 10
62.203027
 20
16.182154
 10
62.203027
 20
16.108739
 10
62.203027
 20
16.040694
 10
62.203027
 20
15.978473
 10
62.203027
 20
15.922489
 10
62.203027
 20
15.873114
 10
62.203027
 20
15.830678
 10
62.203027
 20
15.795463
 10
62.203027
 20
15.767703
 10
62.203027
 20
15.747583
 10
62.203027
 20
15.735237
  0
LWPOLYLINE
  5
9B1
100
AcDbEntity
  8
0
  6
CONTINUOUS
 62
     7
100
AcDbPolyline
 90
       39
 70
     0
 43
0.0
 10
62.368027
 20
18.100728
 10
62.368027
 20
18.099996
 10
62.368027
 20
18.092663
 10
62.368027
 20
18.077497
 10
62.368027
 20
18.0546
 10
62.368027
 20
18.024124
 10
62.368027
 20
17.986272
 10
62.368027
 20
17.941296
 10
62.368027
 20
17.889494
 10
62.368027
 20
17.831212
 10
62.368027
 20
17.766838
 10
62.368027
 20
17.6968
 10
62.368027
 20
17.621564
 10
62.368027
 20
17.541631
 10
62.368027
 20
17.457532
 10
62.368027
 20
17.369828
 10
62.368027
 20
17.279102
 10
62.368027
 20
17.185957
 10
62.368027
 20
17.091015
 10
62.368027
 20
16.994905
 10
62.368027
 20
16.898269
 10
62.368027
 20
16.801749
 10
62.368027
 20
16.705988
 10
62.368027
 20
16.611622
 10
62.368027
 20
16.51928
 10
62.368027
 20
16.429577
 10
62.368027
 20
16.343109
 10
62.368027
 20
16.260451
 10
62.368027
 20
16.182154
 10
62.368027
 20
16.108739
 10
62.368027
 20
16.040694
 10
62.368027
 20
15.978473
 10
62.368027
 20
15.922489
 10
62.368027
 20
15.873114
 10
62.368027
 20
15.830678
 10
62.368027
 20
15.795463
 10
62.368027
 20
15.767703
 10
62.368027
 20
15.747583
 10
62.368027
 20
15.735237
  0
LWPOLYLINE
  5
9B2
100
AcDbEntity
  8
0
  6
CONTINUOUS
 62
     7
100
AcDbPolyline
 90
       39
 70
     0
 43
0.0
 10
61.638027
 20
18.100728
 10
61.638027
 20
18.099996
 10
61.638027
 20
18.092663
 10
61.638027
 20
18.077497
 10
61.638027
 20
18.0546
 10
61.638027
 20
18.024124
 10
61.638027
 20
17.986272
 10
61.638027
 20
17.941296
 10
61.638027
 20
17.889494
 10
61.638027
 20
17.831212
 10
61.638027
 20
17.766838
 10
61.638027
 20
17.6968
 10
61.638027
 20
17.621564
 10
61.638027
 20
17.541631
 10
61.638027
 20
17.457532
 10
61.638027
 20
17.369828
 10
61.638027
 20
17.279102
 10
61.638027
 20
17.185957
 10
61.638027
 20
17.091015
 10
61.638027
 20
16.994905
 10
61.638027
 20
16.898269
 10
61.638027
 20
16.801749
 10
61.638027
 20
16.705988
 10
61.638027
 20
16.611622
 10
61.638027
 20
16.51928
 10
61.638027
 20
16.429577
 10
61.638027
 20
16.343109
 10
61.638027
 20
16.260451
 10
61.638027
 20
16.182154
 10
61.638027
 20
16.108739
 10
61.638027
 20
16.040694
 10
61.638027
 20
15.978473
 10
61.638027
 20
15.922489
 10
61.638027
 20
15.873114
 10
61.638027
 20
15.830678
 10
61.638027
 20
15.795463
 10
61.638027
 20
15.767703
 10
61.638027
 20
15.747583
 10
61.638027
 20
15.735237
  0
LWPOLYLINE
  5
9B3
100
AcDbEntity
  8
0
  6
CONTINUOUS
 62
     7
100
AcDbPolyline
 90
       37
 70
     0
 43
0.0
 10
61.569363
 20
18.01335
 10
61.569363
 20
18.009612
 10
61.569363
 20
17.997996
 10
61.569363
 20
17.978582
 10
61.569363
 20
17.951511
 10
61.569363
 20
17.916976
 10
61.569363
 20
17.875227
 10
61.569363
 20
17.826566
 10
61.569363
 20
17.771341
 10
61.569363
 20
17.709952
 10
61.569363
 20
17.64284
 10
61.569363
 20
17.57049
 10
61.569363
 20
17.493422
 10
61.569363
 20
17.412192
 10
61.569363
 20
17.327384
 10
61.569363
 20
17.239611
 10
61.569363
 20
17.149504
 10
61.569363
 20
17.057713
 10
61.569363
 20
16.964898
 10
61.569363
 20
16.87173
 10
61.569363
 20
16.778878
 10
61.569363
 20
16.687013
 10
61.569363
 20
16.596795
 10
61.569363
 20
16.508875
 10
61.569363
 20
16.423887
 10
61.569363
 20
16.342442
 10
61.569363
 20
16.265128
 10
61.569363
 20
16.192502
 10
61.569363
 20
16.125086
 10
61.569363
 20
16.063367
 10
61.569363
 20
16.007789
 10
61.569363
 20
15.958753
 10
61.569363
 20
15.916612
 10
61.569363
 20
15.88167
 10
61.569363
 20
15.854178
 10
61.569363
 20
15.834334
 10
61.569363
 20
15.822282
  0
LWPOLYLINE
  5
9B4
100
AcDbEntity
  8
0
  6
CONTINUOUS
 62
     7
100
AcDbPolyline
 90
       37
 70
     0
 43
0.0
 10
61.508027
 20
17.999355
 10
61.508027
 20
17.998407
 10
61.508027
 20
17.990502
 10
61.508027
 20
17.974641
 10
61.508027
 20
17.950939
 10
61.508027
 20
17.919574
 10
61.508027
 20
17.880776
 10
61.508027
 20
17.834833
 10
61.508027
 20
17.782086
 10
61.508027
 20
17.722924
 10
61.508027
 20
17.657786
 10
61.508027
 20
17.587154
 10
61.508027
 20
17.511551
 10
61.508027
 20
17.431537
 10
61.508027
 20
17.347704
 10
61.508027
 20
17.260673
 10
61.508027
 20
17.171088
 10
61.508027
 20
17.079612
 10
61.508027
 20
16.986923
 10
61.508027
 20
16.893707
 10
61.508027
 20
16.800654
 10
61.508027
 20
16.708453
 10
61.508027
 20
16.617787
 10
61.508027
 20
16.529326
 10
61.508027
 20
16.443726
 10
61.508027
 20
16.361621
 10
61.508027
 20
16.283618
 10
61.508027
 20
16.210295
 10
61.508027
 20
16.142195
 10
61.508027
 20
16.079821
 10
61.508027
 20
16.023637
 10
61.508027
 20
15.974057
 10
61.508027
 20
15.931449
 10
61.508027
 20
15.896128
 10
61.508027
 20
15.868356
 10
61.508027
 20
15.848339
 10
61.508027
 20
15.836224
  0
LWPOLYLINE
  5
9B5
100
AcDbEntity
  8
0
  6
CONTINUOUS
 62
     7
100
AcDbPolyline
 90
       38
 70
     0
 43
0.0
 10
61.388027
 20
18.058228
 10
61.388027
 20
18.057386
 10
61.388027
 20
18.049712
 10
61.388027
 20
18.034084
 10
61.388027
 20
18.010611
 10
61.388027
 20
17.979459
 10
61.388027
 20
17.940845
 10
61.388027
 20
17.895041
 10
61.388027
 20
17.842368
 10
61.388027
 20
17.783195
 10
61.388027
 20
17.717938
 10
61.388027
 20
17.647053
 10
61.388027
 20
17.571039
 10
61.388027
 20
17.490428
 10
61.388027
 20
17.405786
 10
61.388027
 20
17.317707
 10
61.388027
 20
17.226808
 10
61.388027
 20
17.133727
 10
61.388027
 20
17.039117
 10
61.388027
 20
16.943641
 10
61.388027
 20
16.84797
 10
61.388027
 20
16.752774
 10
61.388027
 20
16.658721
 10
61.388027
 20
16.566471
 10
61.388027
 20
16.47667
 10
61.388027
 20
16.389949
 10
61.388027
 20
16.306917
 10
61.388027
 20
16.228154
 10
61.388027
 20
16.154214
 10
61.388027
 20
16.085616
 10
61.388027
 20
16.022841
 10
61.388027
 20
15.966328
 10
61.388027
 20
15.916475
 10
61.388027
 20
15.87363
 10
61.388027
 20
15.838096
 10
61.388027
 20
15.81012
 10
61.388027
 20
15.789899
 10
61.388027
 20
15.777575
  0
LWPOLYLINE
  5
9B6
100
AcDbEntity
  8
0
  6
CONTINUOUS
 62
     7
100
AcDbPolyline
 90
       39
 70
     0
 43
0.0
 10
65.488027
 20
18.100728
 10
65.488027
 20
18.099996
 10
65.488027
 20
18.092663
 10
65.488027
 20
18.077497
 10
65.488027
 20
18.0546
 10
65.488027
 20
18.024124
 10
65.488027
 20
17.986272
 10
65.488027
 20
17.941296
 10
65.488027
 20
17.889494
 10
65.488027
 20
17.831212
 10
65.488027
 20
17.766838
 10
65.488027
 20
17.6968
 10
65.488027
 20
17.621564
 10
65.488027
 20
17.541631
 10
65.488027
 20
17.457532
 10
65.488027
 20
17.369828
 10
65.488027
 20
17.279102
 10
65.488027
 20
17.185957
 10
65.488027
 20
17.091015
 10
65.488027
 20
16.994905
 10
65.488027
 20
16.898269
 10
65.488027
 20
16.801749
 10
65.488027
 20
16.705988
 10
65.488027
 20
16.611622
 10
65.488027
 20
16.51928
 10
65.488027
 20
16.429577
 10
65.488027
 20
16.343109
 10
65.488027
 20
16.260451
 10
65.488027
 20
16.182154
 10
65.488027
 20
16.108739
 10
65.488027
 20
16.040694
 10
65.488027
 20
15.978473
 10
65.488027
 20
15.922489
 10
65.488027
 20
15.873114
 10
65.488027
 20
15.830678
 10
65.488027
 20
15.795463
 10
65.488027
 20
15.767703
 10
65.488027
 20
15.747583
 10
65.488027
 20
15.735237
  0
LINE
  5
9B7
100
AcDbEntity
  8
0
  6
CONTINUOUS
 62
     7
100
AcDbLine
 10
59.848027
 20
16.737434
 30
0.0
 11
61.388027
 21
16.737434
 31
0.0
  0
LINE
  5
9B8
100
AcDbEntity
  8
0
  6
CONTINUOUS
 62
     7
100
AcDbLine
 10
59.848027
 20
16.527212
 30
0.0
 11
61.388027
 21
16.527212
 31
0.0
  0
LINE
  5
9B9
100
AcDbEntity
  8
0
  6
CONTINUOUS
100
AcDbLine
 10
67.990737
 20
16.670364
 30
0.0
 11
67.325737
 21
16.670364
 31
0.0
  0
LINE
  5
9BA
100
AcDbEntity
  8
0
  6
CONTINUOUS
100
AcDbLine
 10
67.325737
 20
16.670364
 30
0.0
 11
67.990737
 21
16.670364
 31
0.0
  0
LEADER
  5
9BB
100
AcDbEntity
  8
0
100
AcDbLeader
  3
STANDARD
 40
0.18
 41
0.18
 76
     2
 10
70.324355
 20
17.568326
 30
0.0
 10
73.417722
 20
17.568326
 30
0.0
 77
   256
211
-1.0
221
0.0
231
0.0
210
0.0
220
0.0
230
-1.0
213
0.0
223
0.09
233
0.0
1001
ACAD
1000
DSTYLE
1002
{
1070
     5
1000

1070
    41
1040
0.5
1070
   342
1005
0
1002
}
  0
LINE
  5
9BD
100
AcDbEntity
  8
0
100
AcDbLine
 10
69.328447
 20
15.796116
 30
0.0
 11
74.328447
 21
15.796116
 31
0.0
  0
LINE
  5
9BE
100
AcDbEntity
  8
0
100
AcDbLine
 10
74.577157
 20
16.391159
 30
0.0
 11
74.328447
 21
16.391159
 31
0.0
  0
LINE
  5
9BF
100
AcDbEntity
  8
0
100
AcDbLine
 10
74.577157
 20
16.659202
 30
0.0
 11
74.328447
 21
16.659202
 31
0.0
  0
LINE
  5
9C0
100
AcDbEntity
  8
0
  6
CONTINUOUS
100
AcDbLine
 10
74.681957
 20
16.465971
 30
0.0
 11
74.894757
 21
16.465971
 31
0.0
  0
LINE
  5
9C1
100
AcDbEntity
  8
0
  6
CONTINUOUS
100
AcDbLine
 10
74.577157
 20
16.674449
 30
0.0
 11
74.681957
 21
16.674449
 31
0.0
  0
LINE
  5
9C2
100
AcDbEntity
  8
0
  6
CONTINUOUS
100
AcDbLine
 10
68.974937
 20
16.461886
 30
0.0
 11
68.762137
 21
16.461886
 31
0.0
  0
LINE
  5
9C3
100
AcDbEntity
  8
0
100
AcDbLine
 10
69.079737
 20
16.391159
 30
0.0
 11
69.328447
 21
16.391159
 31
0.0
  0
LINE
  5
9C4
100
AcDbEntity
  8
0
100
AcDbLine
 10
69.079737
 20
16.655116
 30
0.0
 11
69.328447
 21
16.655116
 31
0.0
  0
LINE
  5
9C5
100
AcDbEntity
  8
0
  6
CONTINUOUS
100
AcDbLine
 10
69.079737
 20
16.670364
 30
0.0
 11
68.974937
 21
16.670364
 31
0.0
  0
LINE
  5
9C6
100
AcDbEntity
  8
0
  6
CONTINUOUS
100
AcDbLine
 10
68.762137
 20
16.391159
 30
0.0
 11
68.097137
 21
16.391159
 31
0.0
  0
LINE
  5
9C7
100
AcDbEntity
  8
0
  6
CONTINUOUS
100
AcDbLine
 10
68.762137
 20
16.655116
 30
0.0
 11
68.097137
 21
16.655116
 31
0.0
  0
ARC
  5
9C8
100
AcDbEntity
  8
0
  6
CONTINUOUS
100
AcDbCircle
 10
68.070537
 20
16.541686
 30
0.0
 40
0.0798
100
AcDbArc
 50
180.0
 51
270.0
  0
LINE
  5
9C9
100
AcDbEntity
  8
0
  6
CONTINUOUS
100
AcDbLine
 10
68.097137
 20
16.461886
 30
0.0
 11
68.070537
 21
16.461886
 31
0.0
  0
LINE
  5
9CB
100
AcDbEntity
  8
0
  6
CONTINUOUS
 62
     7
100
AcDbLine
 10
65.488027
 20
15.730728
 30
0.0
 11
62.368027
 21
15.730728
 31
0.0
  0
LINE
  5
9CC
100
AcDbEntity
  8
0
100
AcDbLine
 10
66.236737
 20
16.655116
 30
0.0
 11
65.988027
 21
16.655116
 31
0.0
  0
LINE
  5
9CD
100
AcDbEntity
  8
0
100
AcDbLine
 10
66.236737
 20
16.387074
 30
0.0
 11
65.988027
 21
16.387074
 31
0.0
  0
ARC
  5
9CE
100
AcDbEntity
  8
0
  6
CONTINUOUS
 62
     7
100
AcDbCircle
 10
65.488027
 20
16.230728
 30
0.0
 40
0.5
100
AcDbArc
 50
270.0
 51
360.0
  0
LINE
  5
9CF
100
AcDbEntity
  8
0
  6
CONTINUOUS
100
AcDbLine
 10
66.554337
 20
16.655116
 30
0.0
 11
67.219337
 21
16.655116
 31
0.0
  0
LINE
  5
9D0
100
AcDbEntity
  8
0
  6
CONTINUOUS
100
AcDbLine
 10
66.554337
 20
16.391159
 30
0.0
 11
67.219337
 21
16.391159
 31
0.0
  0
ARC
  5
9D1
100
AcDbEntity
  8
0
  6
CONTINUOUS
100
AcDbCircle
 10
67.245937
 20
16.541686
 30
0.0
 40
0.0798
100
AcDbArc
 50
270.0
 51
0.0
  0
LINE
  5
9D2
100
AcDbEntity
  8
0
  6
CONTINUOUS
100
AcDbLine
 10
67.219337
 20
16.461886
 30
0.0
 11
67.245937
 21
16.461886
 31
0.0
  0
LINE
  5
9D3
100
AcDbEntity
  8
0
  6
CONTINUOUS
100
AcDbLine
 10
66.341537
 20
16.461886
 30
0.0
 11
66.554337
 21
16.461886
 31
0.0
  0
LINE
  5
9D4
100
AcDbEntity
  8
0
  6
CONTINUOUS
100
AcDbLine
 10
66.236737
 20
16.670364
 30
0.0
 11
66.341537
 21
16.670364
 31
0.0
  0
LWPOLYLINE
  5
9D5
100
AcDbEntity
  8
0
  6
CONTINUOUS
 62
     7
100
AcDbPolyline
 90
        3
 70
     0
 43
0.0
 10
65.488027
 20
15.735237
 10
65.488027
 20
15.730747
 10
65.488027
 20
15.730728
  0
LINE
  5
9D6
100
AcDbEntity
  8
0
  6
CONTINUOUS
 62
     7
100
AcDbLine
 10
65.988027
 20
16.233334
 30
0.0
 11
65.988027
 21
16.230728
 31
0.0
  0
ARC
  5
9D7
100
AcDbEntity
  8
0
  6
CONTINUOUS
 62
     7
100
AcDbCircle
 10
62.285527
 20
15.813228
 30
0.0
 40
0.116673
100
AcDbArc
 50
225.0
 51
315.0
  0
LWPOLYLINE
  5
9D8
100
AcDbEntity
  8
0
  6
CONTINUOUS
 62
     7
100
AcDbPolyline
 90
        3
 70
     0
 43
0.0
 10
62.368027
 20
15.735237
 10
62.368027
 20
15.730747
 10
62.368027
 20
15.730728
  0
LINE
  5
9D9
100
AcDbEntity
  8
0
  6
CONTINUOUS
 62
     7
100
AcDbLine
 10
61.108027
 20
16.403639
 30
0.0
 11
61.388027
 21
16.403639
 31
0.0
  0
LINE
  5
9DA
100
AcDbEntity
  8
0
  6
CONTINUOUS
 62
     7
100
AcDbLine
 10
61.388027
 20
15.903639
 30
0.0
 11
61.108027
 21
15.903639
 31
0.0
  0
LINE
  5
9DB
100
AcDbEntity
  8
0
  6
CONTINUOUS
 62
     7
100
AcDbLine
 10
62.203027
 20
15.730728
 30
0.0
 11
61.638027
 21
15.730728
 31
0.0
  0
LWPOLYLINE
  5
9DC
100
AcDbEntity
  8
0
  6
CONTINUOUS
 62
     7
100
AcDbPolyline
 90
        3
 70
     0
 43
0.0
 10
62.203027
 20
15.735237
 10
62.203027
 20
15.730747
 10
62.203027
 20
15.730728
  0
LWPOLYLINE
  5
9DD
100
AcDbEntity
  8
0
  6
CONTINUOUS
 62
     7
100
AcDbPolyline
 90
        3
 70
     0
 43
0.0
 10
61.388027
 20
15.777575
 10
61.388027
 20
15.773235
 10
61.388027
 20
15.773228
  0
LINE
  5
9DE
100
AcDbEntity
  8
0
  6
CONTINUOUS
 62
     7
100
AcDbLine
 10
61.638027
 20
15.730728
 30
0.0
 11
61.569363
 21
15.818105
 31
0.0
  0
LWPOLYLINE
  5
9DF
100
AcDbEntity
  8
0
  6
CONTINUOUS
 62
     7
100
AcDbPolyline
 90
        4
 70
     0
 43
0.0
 10
61.569363
 20
15.818105
 10
61.551849
 20
15.832209
 10
61.529925
 20
15.837211
 10
61.508027
 20
15.8321
  0
LWPOLYLINE
  5
9E0
100
AcDbEntity
  8
0
  6
CONTINUOUS
 62
     7
100
AcDbPolyline
 90
        3
 70
     0
 43
0.0
 10
61.638027
 20
15.735237
 10
61.638027
 20
15.730747
 10
61.638027
 20
15.730728
  0
LWPOLYLINE
  5
9E1
100
AcDbEntity
  8
0
  6
CONTINUOUS
 62
     7
100
AcDbPolyline
 90
        3
 70
     0
 43
0.0
 10
61.569363
 20
15.822282
 10
61.569363
 20
15.818108
 10
61.569363
 20
15.818105
  0
LWPOLYLINE
  5
9E2
100
AcDbEntity
  8
0
  6
CONTINUOUS
 62
     7
100
AcDbPolyline
 90
        3
 70
     0
 43
0.0
 10
61.508027
 20
15.836224
 10
61.508027
 20
15.832101
 10
61.508027
 20
15.8321
  0
LINE
  5
9E3
100
AcDbEntity
  8
0
  6
CONTINUOUS
 62
     7
100
AcDbLine
 10
61.508027
 20
15.8321
 30
0.0
 11
61.388027
 21
15.773228
 31
0.0
  0
LWPOLYLINE
  5
9E4
100
AcDbEntity
  8
0
  6
CONTINUOUS
 62
     7
100
AcDbPolyline
 90
       19
 70
     0
 43
0.0
 10
61.108027
 20
16.441139
 10
61.108027
 20
16.437117
 10
61.108027
 20
16.424941
 10
61.108027
 20
16.40496
 10
61.108027
 20
16.377749
 10
61.108027
 20
16.344091
 10
61.108027
 20
16.304954
 10
61.108027
 20
16.261464
 10
61.108027
 20
16.214872
 10
61.108027
 20
16.166518
 10
61.108027
 20
16.117794
 10
61.108027
 20
16.070101
 10
61.108027
 20
16.024811
 10
61.108027
 20
15.983227
 10
61.108027
 20
15.946546
 10
61.108027
 20
15.915823
 10
61.108027
 20
15.891941
 10
61.108027
 20
15.875587
 10
61.108027
 20
15.867233
  0
LWPOLYLINE
  5
9E5
100
AcDbEntity
  8
0
  6
CONTINUOUS
 62
     7
100
AcDbPolyline
 90
       19
 70
     0
 43
0.0
 10
60.878027
 20
16.441139
 10
60.878027
 20
16.437117
 10
60.878027
 20
16.424941
 10
60.878027
 20
16.40496
 10
60.878027
 20
16.377749
 10
60.878027
 20
16.344091
 10
60.878027
 20
16.304954
 10
60.878027
 20
16.261464
 10
60.878027
 20
16.214872
 10
60.878027
 20
16.166518
 10
60.878027
 20
16.117794
 10
60.878027
 20
16.070101
 10
60.878027
 20
16.024811
 10
60.878027
 20
15.983227
 10
60.878027
 20
15.946546
 10
60.878027
 20
15.915823
 10
60.878027
 20
15.891941
 10
60.878027
 20
15.875587
 10
60.878027
 20
15.867233
  0
LINE
  5
9E6
100
AcDbEntity
  8
0
  6
CONTINUOUS
 62
     7
100
AcDbLine
 10
60.878027
 20
15.867233
 30
0.0
 11
60.878027
 21
15.866139
 31
0.0
  0
LINE
  5
9E7
100
AcDbEntity
  8
0
  6
CONTINUOUS
 62
     7
100
AcDbLine
 10
61.108027
 20
15.867233
 30
0.0
 11
61.108027
 21
15.866139
 31
0.0
  0
LINE
  5
9E8
100
AcDbEntity
  8
0
  6
CONTINUOUS
 62
     7
100
AcDbLine
 10
61.108027
 20
15.866139
 30
0.0
 11
60.878027
 21
15.866139
 31
0.0
  0
LINE
  5
9E9
100
AcDbEntity
  8
0
  6
CONTINUOUS
 62
     7
100
AcDbLine
 10
60.878027
 20
16.053639
 30
0.0
 11
60.648027
 21
16.053639
 31
0.0
  0
LINE
  5
9EA
100
AcDbEntity
  8
0
  6
CONTINUOUS
 62
     7
100
AcDbLine
 10
60.648027
 20
16.253639
 30
0.0
 11
60.878027
 21
16.253639
 31
0.0
  0
LINE
  5
9EB
100
AcDbEntity
  8
0
  6
CONTINUOUS
 62
     7
100
AcDbLine
 10
60.878027
 20
16.441139
 30
0.0
 11
61.108027
 21
16.441139
 31
0.0
  0
LINE
  5
9EC
100
AcDbEntity
  8
0
  6
CONTINUOUS
 62
     7
100
AcDbLine
 10
60.648027
 20
16.054019
 30
0.0
 11
60.648027
 21
16.053639
 31
0.0
  0
LWPOLYLINE
  5
9ED
100
AcDbEntity
  8
0
  6
CONTINUOUS
 62
     7
100
AcDbPolyline
 90
       12
 70
     0
 43
0.0
 10
60.648027
 20
16.253639
 10
60.648027
 20
16.251678
 10
60.648027
 20
16.242156
 10
60.648027
 20
16.225462
 10
60.648027
 20
16.20295
 10
60.648027
 20
16.176443
 10
60.648027
 20
16.148088
 10
60.648027
 20
16.120183
 10
60.648027
 20
16.094989
 10
60.648027
 20
16.074545
 10
60.648027
 20
16.06051
 10
60.648027
 20
16.054019
  0
LINE
  5
9EE
100
AcDbEntity
  8
0
  6
CONTINUOUS
100
AcDbLine
 10
59.582229
 20
16.570442
 30
0.0
 11
59.422229
 21
16.570442
 31
0.0
  0
LINE
  5
9EF
100
AcDbEntity
  8
0
100
AcDbLine
 10
59.661027
 20
16.715728
 30
0.0
 11
59.848027
 21
16.715728
 31
0.0
  0
LINE
  5
9F0
100
AcDbEntity
  8
0
100
AcDbLine
 10
59.661027
 20
16.517263
 30
0.0
 11
59.848027
 21
16.517263
 31
0.0
  0
LINE
  5
9F1
100
AcDbEntity
  8
0
  6
CONTINUOUS
100
AcDbLine
 10
59.661027
 20
16.727192
 30
0.0
 11
59.582229
 21
16.727192
 31
0.0
  0
LINE
  5
9F2
100
AcDbEntity
  8
0
  6
CONTINUOUS
100
AcDbLine
 10
59.422229
 20
16.715728
 30
0.0
 11
58.922229
 21
16.715728
 31
0.0
  0
LINE
  5
9F3
100
AcDbEntity
  8
0
  6
CONTINUOUS
100
AcDbLine
 10
59.422229
 20
16.517263
 30
0.0
 11
58.922229
 21
16.517263
 31
0.0
  0
ARC
  5
9F4
100
AcDbEntity
  8
0
  6
CONTINUOUS
100
AcDbCircle
 10
58.902229
 20
16.630442
 30
0.0
 40
0.06
100
AcDbArc
 50
180.0
 51
270.0
  0
LINE
  5
9F5
100
AcDbEntity
  8
0
  6
CONTINUOUS
100
AcDbLine
 10
58.922229
 20
16.570442
 30
0.0
 11
58.902229
 21
16.570442
 31
0.0
  0
LINE
  5
9F6
100
AcDbEntity
  8
0
  6
CONTINUOUS
 62
     7
100
AcDbLine
 10
59.848027
 20
17.151544
 30
0.0
 11
61.388027
 21
17.151544
 31
0.0
  0
LINE
  5
9F7
100
AcDbEntity
  8
0
  6
CONTINUOUS
 62
     7
100
AcDbLine
 10
59.848027
 20
17.304244
 30
0.0
 11
61.388027
 21
17.304244
 31
0.0
  0
LINE
  5
9F9
100
AcDbEntity
  8
0
  6
CONTINUOUS
100
AcDbLine
 10
67.990737
 20
17.167784
 30
0.0
 11
67.325737
 21
17.167784
 31
0.0
  0
LINE
  5
9FA
100
AcDbEntity
  8
0
100
AcDbLine
 10
69.328447
 20
18.046116
 30
0.0
 11
74.328447
 21
18.046116
 31
0.0
  0
LINE
  5
9FB
100
AcDbEntity
  8
0
100
AcDbLine
 10
74.577157
 20
17.187116
 30
0.0
 11
74.328447
 21
17.187116
 31
0.0
  0
LINE
  5
9FC
100
AcDbEntity
  8
0
100
AcDbLine
 10
74.577157
 20
17.451074
 30
0.0
 11
74.328447
 21
17.451074
 31
0.0
  0
LINE
  5
9FD
100
AcDbEntity
  8
0
  6
CONTINUOUS
100
AcDbLine
 10
74.681957
 20
17.380346
 30
0.0
 11
74.894757
 21
17.380346
 31
0.0
  0
LINE
  5
9FE
100
AcDbEntity
  8
0
  6
CONTINUOUS
100
AcDbLine
 10
74.577157
 20
17.171869
 30
0.0
 11
74.681957
 21
17.171869
 31
0.0
  0
LINE
  5
9FF
100
AcDbEntity
  8
0
  6
CONTINUOUS
100
AcDbLine
 10
68.974937
 20
17.376261
 30
0.0
 11
68.762137
 21
17.376261
 31
0.0
  0
LINE
  5
A00
100
AcDbEntity
  8
0
100
AcDbLine
 10
69.079737
 20
17.183031
 30
0.0
 11
69.328447
 21
17.183031
 31
0.0
  0
LINE
  5
A01
100
AcDbEntity
  8
0
100
AcDbLine
 10
69.079737
 20
17.451074
 30
0.0
 11
69.328447
 21
17.451074
 31
0.0
  0
LINE
  5
A02
100
AcDbEntity
  8
0
  6
CONTINUOUS
100
AcDbLine
 10
69.079737
 20
17.167784
 30
0.0
 11
68.974937
 21
17.167784
 31
0.0
  0
LINE
  5
A03
100
AcDbEntity
  8
0
  6
CONTINUOUS
100
AcDbLine
 10
68.762137
 20
17.183031
 30
0.0
 11
68.097137
 21
17.183031
 31
0.0
  0
LINE
  5
A04
100
AcDbEntity
  8
0
  6
CONTINUOUS
100
AcDbLine
 10
68.762137
 20
17.446988
 30
0.0
 11
68.097137
 21
17.446988
 31
0.0
  0
ARC
  5
A05
100
AcDbEntity
  8
0
  6
CONTINUOUS
100
AcDbCircle
 10
68.070537
 20
17.296461
 30
0.0
 40
0.0798
100
AcDbArc
 50
90.0
 51
180.0
  0
LINE
  5
A06
100
AcDbEntity
  8
0
  6
CONTINUOUS
100
AcDbLine
 10
68.097137
 20
17.376261
 30
0.0
 11
68.070537
 21
17.376261
 31
0.0
  0
LINE
  5
A07
100
AcDbEntity
  8
0
  6
CONTINUOUS
 62
     7
100
AcDbLine
 10
62.368027
 20
18.100728
 30
0.0
 11
65.488027
 21
18.100728
 31
0.0
  0
LINE
  5
A09
100
AcDbEntity
  8
0
100
AcDbLine
 10
66.236737
 20
17.446988
 30
0.0
 11
65.988027
 21
17.446988
 31
0.0
  0
LINE
  5
A0A
100
AcDbEntity
  8
0
100
AcDbLine
 10
66.236737
 20
17.183031
 30
0.0
 11
65.988027
 21
17.183031
 31
0.0
  0
ARC
  5
A0B
100
AcDbEntity
  8
0
  6
CONTINUOUS
 62
     7
100
AcDbCircle
 10
65.488027
 20
17.600728
 30
0.0
 40
0.5
100
AcDbArc
 50
0.0
 51
90.0
  0
LINE
  5
A0C
100
AcDbEntity
  8
0
  6
CONTINUOUS
100
AcDbLine
 10
66.554337
 20
17.446988
 30
0.0
 11
67.219337
 21
17.446988
 31
0.0
  0
LINE
  5
A0D
100
AcDbEntity
  8
0
  6
CONTINUOUS
100
AcDbLine
 10
66.554337
 20
17.183031
 30
0.0
 11
67.219337
 21
17.183031
 31
0.0
  0
ARC
  5
A0E
100
AcDbEntity
  8
0
  6
CONTINUOUS
100
AcDbCircle
 10
67.245937
 20
17.296461
 30
0.0
 40
0.0798
100
AcDbArc
 50
0.0
 51
90.0
  0
LINE
  5
A0F
100
AcDbEntity
  8
0
  6
CONTINUOUS
100
AcDbLine
 10
67.219337
 20
17.376261
 30
0.0
 11
67.245937
 21
17.376261
 31
0.0
  0
LINE
  5
A10
100
AcDbEntity
  8
0
  6
CONTINUOUS
100
AcDbLine
 10
66.341537
 20
17.376261
 30
0.0
 11
66.554337
 21
17.376261
 31
0.0
  0
LINE
  5
A11
100
AcDbEntity
  8
0
  6
CONTINUOUS
100
AcDbLine
 10
66.236737
 20
17.167784
 30
0.0
 11
66.341537
 21
17.167784
 31
0.0
  0
ARC
  5
A12
100
AcDbEntity
  8
0
  6
CONTINUOUS
 62
     7
100
AcDbCircle
 10
62.285527
 20
18.018228
 30
0.0
 40
0.116673
100
AcDbArc
 50
45.0
 51
135.0
  0
LINE
  5
A13
100
AcDbEntity
  8
0
  6
CONTINUOUS
 62
     7
100
AcDbLine
 10
61.108027
 20
17.927817
 30
0.0
 11
61.388027
 21
17.927817
 31
0.0
  0
LINE
  5
A14
100
AcDbEntity
  8
0
  6
CONTINUOUS
 62
     7
100
AcDbLine
 10
61.388027
 20
17.427817
 30
0.0
 11
61.108027
 21
17.427817
 31
0.0
  0
LWPOLYLINE
  5
A15
100
AcDbEntity
  8
0
  6
CONTINUOUS
 62
     7
100
AcDbPolyline
 90
        4
 70
     0
 43
0.0
 10
61.508027
 20
17.999355
 10
61.529925
 20
17.994244
 10
61.551849
 20
17.999246
 10
61.569363
 20
18.01335
  0
LINE
  5
A16
100
AcDbEntity
  8
0
  6
CONTINUOUS
 62
     7
100
AcDbLine
 10
61.638027
 20
18.100728
 30
0.0
 11
62.203027
 21
18.100728
 31
0.0
  0
LINE
  5
A17
100
AcDbEntity
  8
0
  6
CONTINUOUS
 62
     7
100
AcDbLine
 10
61.569363
 20
18.01335
 30
0.0
 11
61.638027
 21
18.100728
 31
0.0
  0
LINE
  5
A18
100
AcDbEntity
  8
0
  6
CONTINUOUS
 62
     7
100
AcDbLine
 10
61.388027
 20
18.058228
 30
0.0
 11
61.508027
 21
17.999355
 31
0.0
  0
LINE
  5
A19
100
AcDbEntity
  8
0
  6
CONTINUOUS
 62
     7
100
AcDbLine
 10
60.648027
 20
17.755317
 30
0.0
 11
60.878027
 21
17.755317
 31
0.0
  0
LINE
  5
A1A
100
AcDbEntity
  8
0
  6
CONTINUOUS
 62
     7
100
AcDbLine
 10
60.878027
 20
17.600317
 30
0.0
 11
60.648027
 21
17.600317
 31
0.0
  0
LINE
  5
A1B
100
AcDbEntity
  8
0
  6
CONTINUOUS
 62
     7
100
AcDbLine
 10
60.878027
 20
17.965317
 30
0.0
 11
61.108027
 21
17.965317
 31
0.0
  0
LINE
  5
A1C
100
AcDbEntity
  8
0
  6
CONTINUOUS
 62
     7
100
AcDbLine
 10
60.878027
 20
17.391411
 30
0.0
 11
60.878027
 21
17.390317
 31
0.0
  0
LINE
  5
A1D
100
AcDbEntity
  8
0
  6
CONTINUOUS
 62
     7
100
AcDbLine
 10
61.108027
 20
17.391411
 30
0.0
 11
61.108027
 21
17.390317
 31
0.0
  0
LINE
  5
A1E
100
AcDbEntity
  8
0
  6
CONTINUOUS
 62
     7
100
AcDbLine
 10
61.108027
 20
17.390317
 30
0.0
 11
60.878027
 21
17.390317
 31
0.0
  0
LWPOLYLINE
  5
A1F
100
AcDbEntity
  8
0
  6
CONTINUOUS
 62
     7
100
AcDbPolyline
 90
       19
 70
     0
 43
0.0
 10
61.108027
 20
17.965317
 10
61.108027
 20
17.961295
 10
61.108027
 20
17.949119
 10
61.108027
 20
17.929138
 10
61.108027
 20
17.901927
 10
61.108027
 20
17.868269
 10
61.108027
 20
17.829132
 10
61.108027
 20
17.785642
 10
61.108027
 20
17.73905
 10
61.108027
 20
17.690696
 10
61.108027
 20
17.641972
 10
61.108027
 20
17.594279
 10
61.108027
 20
17.548989
 10
61.108027
 20
17.507405
 10
61.108027
 20
17.470724
 10
61.108027
 20
17.44
 10
61.108027
 20
17.416118
 10
61.108027
 20
17.399765
 10
61.108027
 20
17.391411
  0
LWPOLYLINE
  5
A20
100
AcDbEntity
  8
0
  6
CONTINUOUS
 62
     7
100
AcDbPolyline
 90
       19
 70
     0
 43
0.0
 10
60.878027
 20
17.965317
 10
60.878027
 20
17.961295
 10
60.878027
 20
17.949119
 10
60.878027
 20
17.929138
 10
60.878027
 20
17.901927
 10
60.878027
 20
17.868269
 10
60.878027
 20
17.829132
 10
60.878027
 20
17.785642
 10
60.878027
 20
17.73905
 10
60.878027
 20
17.690696
 10
60.878027
 20
17.641972
 10
60.878027
 20
17.594279
 10
60.878027
 20
17.548989
 10
60.878027
 20
17.507405
 10
60.878027
 20
17.470724
 10
60.878027
 20
17.44
 10
60.878027
 20
17.416118
 10
60.878027
 20
17.399765
 10
60.878027
 20
17.391411
  0
LINE
  5
A21
100
AcDbEntity
  8
0
  6
CONTINUOUS
 62
     7
100
AcDbLine
 10
60.648027
 20
17.600612
 30
0.0
 11
60.648027
 21
17.600317
 31
0.0
  0
LWPOLYLINE
  5
A22
100
AcDbEntity
  8
0
  6
CONTINUOUS
 62
     7
100
AcDbPolyline
 90
       11
 70
     0
 43
0.0
 10
60.648027
 20
17.755317
 10
60.648027
 20
17.75508
 10
60.648027
 20
17.748931
 10
60.648027
 20
17.735076
 10
60.648027
 20
17.715015
 10
60.648027
 20
17.690924
 10
60.648027
 20
17.665412
 10
60.648027
 20
17.641244
 10
60.648027
 20
17.62104
 10
60.648027
 20
17.606988
 10
60.648027
 20
17.600612
  0
LINE
  5
A23
100
AcDbEntity
  8
0
  6
CONTINUOUS
100
AcDbLine
 10
58.842229
 20
17.101192
 30
0.0
 11
55.342229
 21
17.101192
 31
0.0
  0
LINE
  5
A24
100
AcDbEntity
  8
0
  6
CONTINUOUS
100
AcDbLine
 10
59.582229
 20
17.257942
 30
0.0
 11
59.422229
 21
17.257942
 31
0.0
  0
LINE
  5
A25
100
AcDbEntity
  8
0
100
AcDbLine
 10
59.661027
 20
17.112656
 30
0.0
 11
59.848027
 21
17.112656
 31
0.0
  0
LINE
  5
A26
100
AcDbEntity
  8
0
100
AcDbLine
 10
59.661027
 20
17.314192
 30
0.0
 11
59.848027
 21
17.314192
 31
0.0
  0
LINE
  5
A27
100
AcDbEntity
  8
0
  6
CONTINUOUS
100
AcDbLine
 10
59.661027
 20
17.101192
 30
0.0
 11
59.582229
 21
17.101192
 31
0.0
  0
LINE
  5
A28
100
AcDbEntity
  8
0
  6
CONTINUOUS
100
AcDbLine
 10
59.422229
 20
17.112656
 30
0.0
 11
58.922229
 21
17.112656
 31
0.0
  0
LINE
  5
A29
100
AcDbEntity
  8
0
  6
CONTINUOUS
100
AcDbLine
 10
59.422229
 20
17.31112
 30
0.0
 11
58.922229
 21
17.31112
 31
0.0
  0
ARC
  5
A2A
100
AcDbEntity
  8
0
  6
CONTINUOUS
100
AcDbCircle
 10
58.902229
 20
17.197942
 30
0.0
 40
0.06
100
AcDbArc
 50
90.0
 51
180.0
  0
LINE
  5
A2B
100
AcDbEntity
  8
0
  6
CONTINUOUS
100
AcDbLine
 10
58.922229
 20
17.257942
 30
0.0
 11
58.902229
 21
17.257942
 31
0.0
  0
LINE
  5
A6B
100
AcDbEntity
  8
0
  6
CONTINUOUS
100
AcDbLine
 10
47.708946
 20
2.579985
 30
0.0
 11
49.209925
 21
2.579985
 31
0.0
  0
ARC
  5
A6D
100
AcDbEntity
  8
0
100
AcDbCircle
 10
51.474482
 20
2.85645
 30
0.0
 40
0.531326
100
AcDbArc
 50
184.813349
 51
345.837616
  0
CIRCLE
  5
A6E
100
AcDbEntity
  8
0
100
AcDbCircle
 10
51.474482
 20
2.85645
 30
0.0
 40
1.005803
  0
CIRCLE
  5
A6F
100
AcDbEntity
  8
0
100
AcDbCircle
 10
51.474482
 20
2.85645
 30
0.0
 40
1.130803
  0
LINE
  5
A70
100
AcDbEntity
  8
0
  6
CONTINUOUS
100
AcDbLine
 10
51.819768
 20
1.381629
 30
0.0
 11
51.819768
 21
1.221629
 31
0.0
  0
LINE
  5
A71
100
AcDbEntity
  8
0
  6
CONTINUOUS
100
AcDbLine
 10
51.132268
 20
1.381629
 30
0.0
 11
51.132268
 21
1.221629
 31
0.0
  0
LINE
  5
A72
100
AcDbEntity
  8
0
  6
CONTINUOUS
100
AcDbLine
 10
51.759768
 20
0.641629
 30
0.0
 11
51.192268
 21
0.641629
 31
0.0
  0
LINE
  5
A73
100
AcDbEntity
  8
0
  6
CONTINUOUS
100
AcDbLine
 10
51.872947
 20
1.221629
 30
0.0
 11
51.07909
 21
1.221629
 31
0.0
  0
LINE
  5
A74
100
AcDbEntity
  8
0
  6
CONTINUOUS
100
AcDbLine
 10
51.872947
 20
0.721629
 30
0.0
 11
51.07909
 21
0.721629
 31
0.0
  0
LINE
  5
A75
100
AcDbEntity
  8
0
  6
CONTINUOUS
100
AcDbLine
 10
51.277554
 20
1.221629
 30
0.0
 11
51.277554
 21
0.721629
 31
0.0
  0
LINE
  5
A76
100
AcDbEntity
  8
0
  6
CONTINUOUS
100
AcDbLine
 10
51.132268
 20
0.721629
 30
0.0
 11
51.132268
 21
0.701629
 31
0.0
  0
ARC
  5
A77
100
AcDbEntity
  8
0
  6
CONTINUOUS
100
AcDbCircle
 10
51.192268
 20
0.701629
 30
0.0
 40
0.06
100
AcDbArc
 50
180.0
 51
270.0
  0
LINE
  5
A78
100
AcDbEntity
  8
0
  6
CONTINUOUS
100
AcDbLine
 10
51.07909
 20
1.221629
 30
0.0
 11
51.07909
 21
0.721629
 31
0.0
  0
LINE
  5
A79
100
AcDbEntity
  8
0
  6
CONTINUOUS
100
AcDbLine
 10
51.674482
 20
1.221629
 30
0.0
 11
51.674482
 21
0.721629
 31
0.0
  0
LINE
  5
A7A
100
AcDbEntity
  8
0
  6
CONTINUOUS
100
AcDbLine
 10
51.819768
 20
0.721629
 30
0.0
 11
51.819768
 21
0.701629
 31
0.0
  0
LINE
  5
A7B
100
AcDbEntity
  8
0
  6
CONTINUOUS
100
AcDbLine
 10
51.872947
 20
1.221629
 30
0.0
 11
51.872947
 21
0.721629
 31
0.0
  0
ARC
  5
A7C
100
AcDbEntity
  8
0
  6
CONTINUOUS
100
AcDbCircle
 10
51.759768
 20
0.701629
 30
0.0
 40
0.06
100
AcDbArc
 50
270.0
 51
0.0
  0
LINE
  5
A7D
100
AcDbEntity
  8
0
  6
CONTINUOUS
100
AcDbLine
 10
51.819768
 20
1.381629
 30
0.0
 11
51.132268
 21
1.381629
 31
0.0
  0
LINE
  5
A7E
100
AcDbEntity
  8
0
100
AcDbLine
 10
51.663018
 20
1.460427
 30
0.0
 11
51.289018
 21
1.460427
 31
0.0
  0
LINE
  5
A7F
100
AcDbEntity
  8
0
100
AcDbLine
 10
51.074482
 20
1.647427
 30
0.0
 11
51.874482
 21
1.647427
 31
0.0
  0
LINE
  5
A80
100
AcDbEntity
  8
0
100
AcDbLine
 10
51.872947
 20
1.460427
 30
0.0
 11
51.076018
 21
1.460427
 31
0.0
  0
LINE
  5
A81
100
AcDbEntity
  8
0
100
AcDbLine
 10
51.872947
 20
1.647427
 30
0.0
 11
51.076018
 21
1.647427
 31
0.0
  0
LINE
  5
A82
100
AcDbEntity
  8
0
100
AcDbLine
 10
51.874482
 20
1.725647
 30
0.0
 11
51.074482
 21
1.725647
 31
0.0
  0
LINE
  5
A83
100
AcDbEntity
  8
0
100
AcDbLine
 10
51.277554
 20
1.460427
 30
0.0
 11
51.277554
 21
1.647427
 31
0.0
  0
LINE
  5
A84
100
AcDbEntity
  8
0
  6
CONTINUOUS
100
AcDbLine
 10
51.289018
 20
1.460427
 30
0.0
 11
51.289018
 21
1.381629
 31
0.0
  0
LINE
  5
A85
100
AcDbEntity
  8
0
100
AcDbLine
 10
51.076018
 20
1.460427
 30
0.0
 11
51.076018
 21
1.647427
 31
0.0
  0
LINE
  5
A86
100
AcDbEntity
  8
0
100
AcDbLine
 10
51.074482
 20
1.798756
 30
0.0
 11
51.074482
 21
1.725647
 31
0.0
  0
LINE
  5
A87
100
AcDbEntity
  8
0
100
AcDbLine
 10
51.674482
 20
1.460427
 30
0.0
 11
51.674482
 21
1.647427
 31
0.0
  0
LINE
  5
A88
100
AcDbEntity
  8
0
100
AcDbLine
 10
51.872947
 20
1.460427
 30
0.0
 11
51.872947
 21
1.647427
 31
0.0
  0
LINE
  5
A89
100
AcDbEntity
  8
0
  6
CONTINUOUS
100
AcDbLine
 10
51.663018
 20
1.460427
 30
0.0
 11
51.663018
 21
1.381629
 31
0.0
  0
LINE
  5
A8A
100
AcDbEntity
  8
0
100
AcDbLine
 10
51.874482
 20
1.798756
 30
0.0
 11
51.874482
 21
1.725647
 31
0.0
  0
LINE
  5
A8B
100
AcDbEntity
  8
0
  6
CONTINUOUS
100
AcDbLine
 10
51.277554
 20
4.41305
 30
0.0
 11
51.277554
 21
4.91305
 31
0.0
  0
LINE
  5
A8C
100
AcDbEntity
  8
0
  6
CONTINUOUS
100
AcDbLine
 10
51.07909
 20
4.41305
 30
0.0
 11
51.07909
 21
4.91305
 31
0.0
  0
LINE
  5
A8D
100
AcDbEntity
  8
0
  6
CONTINUOUS
100
AcDbLine
 10
51.674482
 20
4.41305
 30
0.0
 11
51.674482
 21
4.91305
 31
0.0
  0
LINE
  5
A8E
100
AcDbEntity
  8
0
  6
CONTINUOUS
100
AcDbLine
 10
51.872947
 20
4.41305
 30
0.0
 11
51.872947
 21
4.91305
 31
0.0
  0
LINE
  5
A8F
100
AcDbEntity
  8
0
100
AcDbLine
 10
50.66868
 20
2.85645
 30
0.0
 11
51.474482
 21
2.72645
 31
0.0
  0
LINE
  5
A90
100
AcDbEntity
  8
0
100
AcDbLine
 10
50.66868
 20
2.85645
 30
0.0
 11
51.474482
 21
2.98645
 31
0.0
  0
LINE
  5
A91
100
AcDbEntity
  8
0
  6
CONTINUOUS
100
AcDbLine
 10
50.077883
 20
3.198664
 30
0.0
 11
49.917883
 21
3.198664
 31
0.0
  0
LINE
  5
A92
100
AcDbEntity
  8
0
  6
CONTINUOUS
100
AcDbLine
 10
50.077883
 20
2.511164
 30
0.0
 11
49.917883
 21
2.511164
 31
0.0
  0
LINE
  5
A93
100
AcDbEntity
  8
0
  6
CONTINUOUS
100
AcDbLine
 10
49.417883
 20
3.198664
 30
0.0
 11
49.397883
 21
3.198664
 31
0.0
  0
ARC
  5
A94
100
AcDbEntity
  8
0
  6
CONTINUOUS
100
AcDbCircle
 10
49.397883
 20
3.138664
 30
0.0
 40
0.06
100
AcDbArc
 50
90.0
 51
180.0
  0
LINE
  5
A95
100
AcDbEntity
  8
0
  6
CONTINUOUS
100
AcDbLine
 10
49.917883
 20
3.251842
 30
0.0
 11
49.417883
 21
3.251842
 31
0.0
  0
LINE
  5
A96
100
AcDbEntity
  8
0
  6
CONTINUOUS
100
AcDbLine
 10
49.917883
 20
3.053378
 30
0.0
 11
49.417883
 21
3.053378
 31
0.0
  0
LINE
  5
A97
100
AcDbEntity
  8
0
  6
CONTINUOUS
100
AcDbLine
 10
49.417883
 20
2.511164
 30
0.0
 11
49.397883
 21
2.511164
 31
0.0
  0
ARC
  5
A98
100
AcDbEntity
  8
0
  6
CONTINUOUS
100
AcDbCircle
 10
49.397883
 20
2.571164
 30
0.0
 40
0.06
100
AcDbArc
 50
180.0
 51
270.0
  0
LINE
  5
A99
100
AcDbEntity
  8
0
  6
CONTINUOUS
100
AcDbLine
 10
49.917883
 20
2.457985
 30
0.0
 11
49.417883
 21
2.457985
 31
0.0
  0
LINE
  5
A9A
100
AcDbEntity
  8
0
  6
CONTINUOUS
100
AcDbLine
 10
49.917883
 20
2.65645
 30
0.0
 11
49.417883
 21
2.65645
 31
0.0
  0
LINE
  5
A9B
100
AcDbEntity
  8
0
  6
CONTINUOUS
100
AcDbLine
 10
49.417883
 20
2.457985
 30
0.0
 11
49.417883
 21
3.251842
 31
0.0
  0
LINE
  5
A9C
100
AcDbEntity
  8
0
  6
CONTINUOUS
100
AcDbLine
 10
49.337883
 20
2.571164
 30
0.0
 11
49.337883
 21
3.138664
 31
0.0
  0
LINE
  5
A9D
100
AcDbEntity
  8
0
  6
CONTINUOUS
100
AcDbLine
 10
49.917883
 20
2.457985
 30
0.0
 11
49.917883
 21
3.251842
 31
0.0
  0
LINE
  5
A9E
100
AcDbEntity
  8
0
  6
CONTINUOUS
100
AcDbLine
 10
49.337883
 20
2.667914
 30
0.0
 11
48.061312
 21
2.667914
 31
0.0
  0
LINE
  5
A9F
100
AcDbEntity
  8
0
100
AcDbLine
 10
49.209925
 20
2.579985
 30
0.0
 11
49.337883
 21
2.579985
 31
0.0
  0
LINE
  5
AA0
100
AcDbEntity
  8
0
  6
CONTINUOUS
100
AcDbLine
 10
50.15668
 20
3.041914
 30
0.0
 11
50.077883
 21
3.041914
 31
0.0
  0
LINE
  5
AA1
100
AcDbEntity
  8
0
100
AcDbLine
 10
50.15668
 20
3.254914
 30
0.0
 11
50.34368
 21
3.254914
 31
0.0
  0
LINE
  5
AA2
100
AcDbEntity
  8
0
100
AcDbLine
 10
50.15668
 20
3.053378
 30
0.0
 11
50.34368
 21
3.053378
 31
0.0
  0
LINE
  5
AA3
100
AcDbEntity
  8
0
  6
CONTINUOUS
100
AcDbLine
 10
50.15668
 20
2.667914
 30
0.0
 11
50.077883
 21
2.667914
 31
0.0
  0
LINE
  5
AA4
100
AcDbEntity
  8
0
100
AcDbLine
 10
50.15668
 20
2.457985
 30
0.0
 11
50.34368
 21
2.457985
 31
0.0
  0
LINE
  5
AA5
100
AcDbEntity
  8
0
100
AcDbLine
 10
50.15668
 20
2.65645
 30
0.0
 11
50.34368
 21
2.65645
 31
0.0
  0
LINE
  5
AA6
100
AcDbEntity
  8
0
100
AcDbLine
 10
50.34368
 20
2.457985
 30
0.0
 11
50.34368
 21
3.254914
 31
0.0
  0
LINE
  5
AA7
100
AcDbEntity
  8
0
100
AcDbLine
 10
50.15668
 20
2.667914
 30
0.0
 11
50.15668
 21
3.041914
 31
0.0
  0
LINE
  5
AA8
100
AcDbEntity
  8
0
  6
CONTINUOUS
100
AcDbLine
 10
50.077883
 20
2.511164
 30
0.0
 11
50.077883
 21
3.198664
 31
0.0
  0
LINE
  5
AA9
100
AcDbEntity
  8
0
100
AcDbLine
 10
50.15668
 20
2.457985
 30
0.0
 11
50.15668
 21
3.254914
 31
0.0
  0
LINE
  5
AAA
100
AcDbEntity
  8
0
100
AcDbLine
 10
50.34368
 20
2.45645
 30
0.0
 11
50.34368
 21
3.25645
 31
0.0
  0
LINE
  5
AAB
100
AcDbEntity
  8
0
100
AcDbLine
 10
50.34368
 20
2.45645
 30
0.0
 11
50.416789
 21
2.45645
 31
0.0
  0
LINE
  5
AAC
100
AcDbEntity
  8
0
100
AcDbLine
 10
50.34368
 20
3.25645
 30
0.0
 11
50.416789
 21
3.25645
 31
0.0
  0
ARC
  5
AAD
100
AcDbEntity
  8
0
100
AcDbCircle
 10
51.474482
 20
2.85645
 30
0.0
 40
0.531326
100
AcDbArc
 50
14.162384
 51
175.186651
  0
ARC
  5
AAE
100
AcDbEntity
  8
0
100
AcDbCircle
 10
51.474482
 20
2.85645
 30
0.0
 40
0.264209
100
AcDbArc
 50
199.897377
 51
330.525542
  0
LINE
  5
AAF
100
AcDbEntity
  8
0
100
AcDbLine
 10
51.474482
 20
2.72645
 30
0.0
 11
52.26973
 21
2.72645
 31
0.0
  0
LINE
  5
AB0
100
AcDbEntity
  8
0
100
AcDbLine
 10
51.474482
 20
2.98645
 30
0.0
 11
52.26973
 21
2.98645
 31
0.0
  0
ARC
  5
AB1
100
AcDbEntity
  8
0
100
AcDbCircle
 10
51.474482
 20
2.85645
 30
0.0
 40
0.264209
100
AcDbArc
 50
29.474458
 51
160.102623
  0
ARC
  5
AB2
100
AcDbEntity
  8
0
100
AcDbCircle
 10
51.474482
 20
2.85645
 30
0.0
 40
0.805803
100
AcDbArc
 50
350.715909
 51
9.284091
  0
LINE
  5
AB3
100
AcDbEntity
  8
0
100
AcDbLine
 10
51.872947
 20
3.987252
 30
0.0
 11
51.076018
 21
3.987252
 31
0.0
  0
LINE
  5
AB4
100
AcDbEntity
  8
0
100
AcDbLine
 10
51.663018
 20
4.174252
 30
0.0
 11
51.289018
 21
4.174252
 31
0.0
  0
LINE
  5
AB5
100
AcDbEntity
  8
0
100
AcDbLine
 10
51.872947
 20
4.174252
 30
0.0
 11
51.076018
 21
4.174252
 31
0.0
  0
LINE
  5
AB6
100
AcDbEntity
  8
0
  6
CONTINUOUS
100
AcDbLine
 10
51.872947
 20
4.41305
 30
0.0
 11
51.07909
 21
4.41305
 31
0.0
  0
LINE
  5
AB7
100
AcDbEntity
  8
0
  6
CONTINUOUS
100
AcDbLine
 10
51.819768
 20
4.25305
 30
0.0
 11
51.132268
 21
4.25305
 31
0.0
  0
LINE
  5
AB8
100
AcDbEntity
  8
0
100
AcDbLine
 10
51.074482
 20
3.987252
 30
0.0
 11
51.874482
 21
3.987252
 31
0.0
  0
LINE
  5
AB9
100
AcDbEntity
  8
0
  6
CONTINUOUS
100
AcDbLine
 10
51.132268
 20
4.25305
 30
0.0
 11
51.132268
 21
4.41305
 31
0.0
  0
LINE
  5
ABA
100
AcDbEntity
  8
0
100
AcDbLine
 10
51.277554
 20
4.174252
 30
0.0
 11
51.277554
 21
3.987252
 31
0.0
  0
LINE
  5
ABB
100
AcDbEntity
  8
0
100
AcDbLine
 10
51.076018
 20
4.174252
 30
0.0
 11
51.076018
 21
3.987252
 31
0.0
  0
LINE
  5
ABC
100
AcDbEntity
  8
0
  6
CONTINUOUS
100
AcDbLine
 10
51.289018
 20
4.174252
 30
0.0
 11
51.289018
 21
4.25305
 31
0.0
  0
LINE
  5
ABD
100
AcDbEntity
  8
0
100
AcDbLine
 10
51.074482
 20
3.987252
 30
0.0
 11
51.074482
 21
3.914143
 31
0.0
  0
LINE
  5
ABE
100
AcDbEntity
  8
0
  6
CONTINUOUS
100
AcDbLine
 10
51.819768
 20
4.25305
 30
0.0
 11
51.819768
 21
4.41305
 31
0.0
  0
LINE
  5
ABF
100
AcDbEntity
  8
0
100
AcDbLine
 10
51.674482
 20
4.174252
 30
0.0
 11
51.674482
 21
3.987252
 31
0.0
  0
LINE
  5
AC0
100
AcDbEntity
  8
0
100
AcDbLine
 10
51.872947
 20
4.174252
 30
0.0
 11
51.872947
 21
3.987252
 31
0.0
  0
LINE
  5
AC1
100
AcDbEntity
  8
0
  6
CONTINUOUS
100
AcDbLine
 10
51.663018
 20
4.174252
 30
0.0
 11
51.663018
 21
4.25305
 31
0.0
  0
LINE
  5
AC2
100
AcDbEntity
  8
0
100
AcDbLine
 10
51.874482
 20
3.987252
 30
0.0
 11
51.874482
 21
3.914143
 31
0.0
  0
LINE
  5
AC3
100
AcDbEntity
  8
0
  6
CONTINUOUS
100
AcDbLine
 10
51.759768
 20
4.99305
 30
0.0
 11
51.192268
 21
4.99305
 31
0.0
  0
LINE
  5
AC4
100
AcDbEntity
  8
0
  6
CONTINUOUS
100
AcDbLine
 10
51.872947
 20
4.91305
 30
0.0
 11
51.07909
 21
4.91305
 31
0.0
  0
ARC
  5
AC5
100
AcDbEntity
  8
0
  6
CONTINUOUS
100
AcDbCircle
 10
51.192268
 20
4.93305
 30
0.0
 40
0.06
100
AcDbArc
 50
90.0
 51
180.0
  0
LINE
  5
AC6
100
AcDbEntity
  8
0
  6
CONTINUOUS
100
AcDbLine
 10
51.132268
 20
4.91305
 30
0.0
 11
51.132268
 21
4.93305
 31
0.0
  0
ARC
  5
AC7
100
AcDbEntity
  8
0
  6
CONTINUOUS
100
AcDbCircle
 10
51.759768
 20
4.93305
 30
0.0
 40
0.06
100
AcDbArc
 50
0.0
 51
90.0
  0
LINE
  5
AC8
100
AcDbEntity
  8
0
  6
CONTINUOUS
100
AcDbLine
 10
51.819768
 20
4.91305
 30
0.0
 11
51.819768
 21
4.93305
 31
0.0
  0
LINE
  5
AC9
100
AcDbEntity
  8
0
  6
CONTINUOUS
100
AcDbLine
 10
51.663018
 20
4.99305
 30
0.0
 11
51.663018
 21
5.49305
 31
0.0
  0
LINE
  5
ACA
100
AcDbEntity
  8
0
100
AcDbLine
 10
52.532176
 20
2.45645
 30
0.0
 11
52.605285
 21
2.45645
 31
0.0
  0
LINE
  5
ACB
100
AcDbEntity
  8
0
100
AcDbLine
 10
52.532176
 20
3.25645
 30
0.0
 11
52.605285
 21
3.25645
 31
0.0
  0
LINE
  5
ACF
100
AcDbEntity
  8
0
100
AcDbLine
 10
43.635352
 20
-0.722558
 30
0.0
 11
44.529061
 21
0.123415
 31
0.0
  0
LINE
  5
AD1
100
AcDbEntity
  8
0
100
AcDbLine
 10
43.893144
 20
-0.994897
 30
0.0
 11
44.784817
 21
-0.15085
 31
0.0
  0
ARC
  5
AD2
100
AcDbEntity
  8
0
100
AcDbCircle
 10
43.119768
 20
-0.177881
 30
0.0
 40
0.75
100
AcDbArc
 50
270.0
 51
313.428225
  0
ARC
  5
AD3
100
AcDbEntity
  8
0
100
AcDbCircle
 10
48.061312
 20
1.917914
 30
0.0
 40
0.75
100
AcDbArc
 50
90.0
 51
133.428225
  0
LINE
  5
AD4
100
AcDbEntity
  8
0
  6
CONTINUOUS
100
AcDbLine
 10
49.337883
 20
3.042914
 30
0.0
 11
48.061312
 21
3.042914
 31
0.0
  0
ARC
  5
AD5
100
AcDbEntity
  8
0
100
AcDbCircle
 10
48.061312
 20
1.917914
 30
0.0
 40
1.125
100
AcDbArc
 50
90.0
 51
133.428225
  0
ARC
  5
AD6
100
AcDbEntity
  8
0
100
AcDbCircle
 10
43.119768
 20
-0.177881
 30
0.0
 40
1.125
100
AcDbArc
 50
267.584019
 51
313.428225
  0
ARC
  5
AE7
100
AcDbEntity
  8
0
100
AcDbCircle
 10
45.06696
 20
1.690415
 30
0.0
 40
0.1
100
AcDbArc
 50
133.0
 51
222.993756
  0
LINE
  5
AE8
100
AcDbEntity
  8
0
100
AcDbLine
 10
44.968231
 20
1.461616
 30
0.0
 11
45.149963
 21
1.266732
 31
0.0
  0
LINE
  5
AE9
100
AcDbEntity
  8
0
100
AcDbLine
 10
45.094929
 20
0.805158
 30
0.0
 11
44.924397
 21
0.988031
 31
0.0
  0
LINE
  5
AEA
100
AcDbEntity
  8
0
  6
CONTINUOUS
100
AcDbLine
 10
45.34284
 20
0.101185
 30
0.0
 11
44.801431
 21
0.681775
 31
0.0
  0
LINE
  5
AEB
100
AcDbEntity
  8
0
  6
CONTINUOUS
100
AcDbLine
 10
45.423589
 20
0.249197
 30
0.0
 11
44.954715
 21
0.752003
 31
0.0
  0
LINE
  5
AEC
100
AcDbEntity
  8
0
100
AcDbLine
 10
44.924397
 20
0.988031
 30
0.0
 11
45.973159
 21
1.965891
 31
0.0
  0
LINE
  5
AED
100
AcDbEntity
  8
0
100
AcDbLine
 10
44.968231
 20
1.461616
 30
0.0
 11
45.500594
 21
1.958053
 31
0.0
  0
LINE
  5
AEE
100
AcDbEntity
  8
0
  6
CONTINUOUS
100
AcDbLine
 10
45.34284
 20
0.101185
 30
0.0
 11
44.977163
 21
-0.239814
 31
0.0
  0
LINE
  5
AEF
100
AcDbEntity
  8
0
  6
CONTINUOUS
100
AcDbLine
 10
45.207488
 20
0.246333
 30
0.0
 11
44.841811
 21
-0.094666
 31
0.0
  0
LINE
  5
AF0
100
AcDbEntity
  8
0
  6
CONTINUOUS
100
AcDbLine
 10
44.841468
 20
-0.2116
 30
0.0
 11
44.454434
 21
0.203443
 31
0.0
  0
LINE
  5
AF1
100
AcDbEntity
  8
0
  6
CONTINUOUS
100
AcDbLine
 10
44.977163
 20
-0.239814
 30
0.0
 11
44.435754
 21
0.340776
 31
0.0
  0
LINE
  5
AF2
100
AcDbEntity
  8
0
  6
CONTINUOUS
100
AcDbLine
 10
44.940896
 20
-0.200922
 30
0.0
 11
44.926269
 21
-0.214562
 31
0.0
  0
ARC
  5
AF3
100
AcDbEntity
  8
0
  6
CONTINUOUS
100
AcDbCircle
 10
44.885349
 20
-0.17068
 30
0.0
 40
0.06
100
AcDbArc
 50
223.0
 51
313.0
  0
LINE
  5
AF4
100
AcDbEntity
  8
0
  6
CONTINUOUS
100
AcDbLine
 10
44.954715
 20
0.752003
 30
0.0
 11
44.837699
 21
0.642883
 31
0.0
  0
LINE
  5
AF5
100
AcDbEntity
  8
0
  6
CONTINUOUS
100
AcDbLine
 10
44.472022
 20
0.301884
 30
0.0
 11
44.457395
 21
0.288244
 31
0.0
  0
ARC
  5
AF6
100
AcDbEntity
  8
0
  6
CONTINUOUS
100
AcDbCircle
 10
44.498315
 20
0.244363
 30
0.0
 40
0.06
100
AcDbArc
 50
133.0
 51
223.0
  0
LINE
  5
AF7
100
AcDbEntity
  8
0
  6
CONTINUOUS
100
AcDbLine
 10
44.801431
 20
0.681775
 30
0.0
 11
44.435754
 21
0.340776
 31
0.0
  0
LINE
  5
AF8
100
AcDbEntity
  8
0
  6
CONTINUOUS
100
AcDbLine
 10
44.936784
 20
0.536628
 30
0.0
 11
44.571107
 21
0.195629
 31
0.0
  0
TEXT
  5
AF9
100
AcDbEntity
  8
0
100
AcDbText
 10
45.458588
 20
0.889888
 30
0.0
 40
0.1
  1
FUEL
 50
43.0
100
AcDbText
  0
TEXT
  5
AFA
100
AcDbEntity
  8
0
100
AcDbText
 10
45.572255
 20
0.767996
 30
0.0
 40
0.1
  1
FLOW
 50
43.0
100
AcDbText
  0
LINE
  5
AFB
100
AcDbEntity
  8
0
100
AcDbLine
 10
45.656895
 20
0.202523
 30
0.0
 11
46.705594
 21
1.18045
 31
0.0
  0
TEXT
  5
AFC
100
AcDbEntity
  8
0
100
AcDbText
 10
45.685921
 20
0.646103
 30
0.0
 40
0.1
  1
TRANSDUCER
 50
43.0
100
AcDbText
  0
LINE
  5
AFD
100
AcDbEntity
  8
0
  6
CONTINUOUS
100
AcDbLine
 10
45.094929
 20
0.805158
 30
0.0
 11
44.993419
 21
0.710499
 31
0.0
  0
LINE
  5
AFE
100
AcDbEntity
  8
0
100
AcDbLine
 10
45.656895
 20
0.202523
 30
0.0
 11
45.486396
 21
0.385361
 31
0.0
  0
LINE
  5
AFF
100
AcDbEntity
  8
0
  6
CONTINUOUS
100
AcDbLine
 10
45.423589
 20
0.249197
 30
0.0
 11
45.306573
 21
0.140078
 31
0.0
  0
LINE
  5
B00
100
AcDbEntity
  8
0
  6
CONTINUOUS
100
AcDbLine
 10
45.486396
 20
0.385361
 30
0.0
 11
45.384886
 21
0.290702
 31
0.0
  0
LINE
  5
B01
100
AcDbEntity
  8
0
100
AcDbLine
 10
45.094929
 20
0.805158
 30
0.0
 11
45.486396
 21
0.385361
 31
0.0
  0
LINE
  5
B02
100
AcDbEntity
  8
0
  6
CONTINUOUS
100
AcDbLine
 10
46.287183
 20
2.067261
 30
0.0
 11
46.65286
 21
2.40826
 31
0.0
  0
LINE
  5
B03
100
AcDbEntity
  8
0
  6
CONTINUOUS
100
AcDbLine
 10
46.422535
 20
1.922114
 30
0.0
 11
46.788212
 21
2.263113
 31
0.0
  0
LINE
  5
B04
100
AcDbEntity
  8
0
100
AcDbLine
 10
46.535095
 20
1.363288
 30
0.0
 11
46.705594
 21
1.18045
 31
0.0
  0
LINE
  5
B05
100
AcDbEntity
  8
0
  6
CONTINUOUS
100
AcDbLine
 10
46.675308
 20
1.416444
 30
0.0
 11
46.206434
 21
1.919249
 31
0.0
  0
LINE
  5
B06
100
AcDbEntity
  8
0
  6
CONTINUOUS
100
AcDbLine
 10
46.828592
 20
1.486671
 30
0.0
 11
46.287183
 21
2.067261
 31
0.0
  0
LINE
  5
B07
100
AcDbEntity
  8
0
100
AcDbLine
 10
44.99876
 20
1.76355
 30
0.0
 11
45.186886
 21
1.93898
 31
0.0
  0
LINE
  5
B08
100
AcDbEntity
  8
0
100
AcDbLine
 10
44.993817
 20
1.622223
 30
0.0
 11
45.328228
 21
1.934036
 31
0.0
  0
ARC
  5
B09
100
AcDbEntity
  8
0
100
AcDbCircle
 10
45.255085
 20
1.865844
 30
0.0
 40
0.1
100
AcDbArc
 50
42.993756
 51
133.0
  0
LINE
  5
B0A
100
AcDbEntity
  8
0
100
AcDbLine
 10
45.359845
 20
1.826802
 30
0.0
 11
45.541595
 21
1.631855
 31
0.0
  0
LINE
  5
B0B
100
AcDbEntity
  8
0
100
AcDbLine
 10
45.500594
 20
1.958053
 30
0.0
 11
45.682381
 21
1.763111
 31
0.0
  0
LINE
  5
B0C
100
AcDbEntity
  8
0
100
AcDbLine
 10
45.682381
 20
1.763111
 30
0.0
 11
45.716467
 21
1.726553
 31
0.0
  0
LINE
  5
B0D
100
AcDbEntity
  8
0
100
AcDbLine
 10
45.098584
 20
1.583172
 30
0.0
 11
45.280308
 21
1.388254
 31
0.0
  0
LINE
  5
B0E
100
AcDbEntity
  8
0
100
AcDbLine
 10
45.149963
 20
1.266732
 30
0.0
 11
45.184072
 21
1.230151
 31
0.0
  0
LINE
  5
B0F
100
AcDbEntity
  8
0
100
AcDbLine
 10
45.149963
 20
1.266732
 30
0.0
 11
45.682381
 21
1.763111
 31
0.0
  0
LINE
  5
B10
100
AcDbEntity
  8
0
100
AcDbLine
 10
44.993817
 20
1.622223
 30
0.0
 11
45.062017
 21
1.549072
 31
0.0
  0
LINE
  5
B11
100
AcDbEntity
  8
0
100
AcDbLine
 10
45.328228
 20
1.934036
 30
0.0
 11
45.396413
 21
1.860901
 31
0.0
  0
LINE
  5
B12
100
AcDbEntity
  8
0
  6
CONTINUOUS
100
AcDbLine
 10
46.143627
 20
1.783085
 30
0.0
 11
46.245137
 21
1.877745
 31
0.0
  0
LINE
  5
B13
100
AcDbEntity
  8
0
100
AcDbLine
 10
46.143627
 20
1.783085
 30
0.0
 11
45.973159
 21
1.965891
 31
0.0
  0
LINE
  5
B14
100
AcDbEntity
  8
0
  6
CONTINUOUS
100
AcDbLine
 10
46.206434
 20
1.919249
 30
0.0
 11
46.32345
 21
2.028369
 31
0.0
  0
LINE
  5
B15
100
AcDbEntity
  8
0
  6
CONTINUOUS
100
AcDbLine
 10
46.535095
 20
1.363288
 30
0.0
 11
46.636604
 21
1.457948
 31
0.0
  0
LINE
  5
B16
100
AcDbEntity
  8
0
100
AcDbLine
 10
46.143627
 20
1.783085
 30
0.0
 11
46.535095
 21
1.363288
 31
0.0
  0
LINE
  5
B17
100
AcDbEntity
  8
0
  6
CONTINUOUS
100
AcDbLine
 10
47.17559
 20
1.965004
 30
0.0
 11
46.788556
 21
2.380047
 31
0.0
  0
LINE
  5
B18
100
AcDbEntity
  8
0
  6
CONTINUOUS
100
AcDbLine
 10
47.194269
 20
1.82767
 30
0.0
 11
46.65286
 21
2.40826
 31
0.0
  0
LINE
  5
B19
100
AcDbEntity
  8
0
  6
CONTINUOUS
100
AcDbLine
 10
46.69324
 20
1.631819
 30
0.0
 11
47.058917
 21
1.972818
 31
0.0
  0
LINE
  5
B1A
100
AcDbEntity
  8
0
  6
CONTINUOUS
100
AcDbLine
 10
46.828592
 20
1.486671
 30
0.0
 11
47.194269
 21
1.82767
 31
0.0
  0
ARC
  5
B1B
100
AcDbEntity
  8
0
  6
CONTINUOUS
100
AcDbCircle
 10
47.131708
 20
1.924084
 30
0.0
 40
0.06
100
AcDbArc
 50
313.0
 51
43.0
  0
LINE
  5
B1C
100
AcDbEntity
  8
0
  6
CONTINUOUS
100
AcDbLine
 10
47.158001
 20
1.866563
 30
0.0
 11
47.172628
 21
1.880202
 31
0.0
  0
LINE
  5
B1D
100
AcDbEntity
  8
0
  6
CONTINUOUS
100
AcDbLine
 10
46.675308
 20
1.416444
 30
0.0
 11
46.792324
 21
1.525563
 31
0.0
  0
LINE
  5
B1E
100
AcDbEntity
  8
0
  6
CONTINUOUS
100
AcDbLine
 10
46.689127
 20
2.369368
 30
0.0
 11
46.703754
 21
2.383008
 31
0.0
  0
ARC
  5
B1F
100
AcDbEntity
  8
0
  6
CONTINUOUS
100
AcDbCircle
 10
46.744674
 20
2.339127
 30
0.0
 40
0.06
100
AcDbArc
 50
43.0
 51
133.0
  0
LINE
  5
B20
100
AcDbEntity
  8
0
100
AcDbLine
 10
46.846915
 20
2.317464
 30
0.0
 11
47.287936
 21
2.734929
 31
0.0
  0
LINE
  5
B21
100
AcDbEntity
  8
0
100
AcDbLine
 10
47.102671
 20
2.043199
 30
0.0
 11
47.545728
 21
2.462591
 31
0.0
  0
LWPOLYLINE
  5
B3B
100
AcDbEntity
  8
0
100
AcDbPolyline
 90
        4
 70
     1
 43
0.0
 10
79.331157
 20
20.342423
 10
93.451053
 20
20.342423
 10
93.451053
 20
13.006475
 10
79.331157
 20
13.006475
  0
LINE
  5
B3C
100
AcDbEntity
  8
0
  6
CONTINUOUS
100
AcDbLine
 10
79.06536
 20
13.186687
 30
0.0
 11
78.90536
 21
13.186687
 31
0.0
  0
LINE
  5
B3D
100
AcDbEntity
  8
0
  6
CONTINUOUS
100
AcDbLine
 10
79.06536
 20
13.874187
 30
0.0
 11
78.90536
 21
13.874187
 31
0.0
  0
LINE
  5
B3E
100
AcDbEntity
  8
0
  6
CONTINUOUS
100
AcDbLine
 10
78.40536
 20
13.186687
 30
0.0
 11
78.38536
 21
13.186687
 31
0.0
  0
LINE
  5
B3F
100
AcDbEntity
  8
0
  6
CONTINUOUS
100
AcDbLine
 10
78.90536
 20
13.133509
 30
0.0
 11
78.40536
 21
13.133509
 31
0.0
  0
ARC
  5
B40
100
AcDbEntity
  8
0
  6
CONTINUOUS
100
AcDbCircle
 10
78.38536
 20
13.814187
 30
0.0
 40
0.06
100
AcDbArc
 50
90.0
 51
180.0
  0
LINE
  5
B41
100
AcDbEntity
  8
0
  6
CONTINUOUS
100
AcDbLine
 10
78.40536
 20
13.874187
 30
0.0
 11
78.38536
 21
13.874187
 31
0.0
  0
LINE
  5
B42
100
AcDbEntity
  8
0
  6
CONTINUOUS
100
AcDbLine
 10
78.32536
 20
13.814187
 30
0.0
 11
78.32536
 21
13.246687
 31
0.0
  0
LINE
  5
B43
100
AcDbEntity
  8
0
  6
CONTINUOUS
100
AcDbLine
 10
78.90536
 20
13.331973
 30
0.0
 11
78.40536
 21
13.331973
 31
0.0
  0
LINE
  5
B44
100
AcDbEntity
  8
0
  6
CONTINUOUS
100
AcDbLine
 10
78.90536
 20
13.728901
 30
0.0
 11
78.40536
 21
13.728901
 31
0.0
  0
LINE
  5
B45
100
AcDbEntity
  8
0
  6
CONTINUOUS
100
AcDbLine
 10
78.90536
 20
13.927366
 30
0.0
 11
78.40536
 21
13.927366
 31
0.0
  0
ARC
  5
B46
100
AcDbEntity
  8
0
  6
CONTINUOUS
100
AcDbCircle
 10
78.38536
 20
13.246687
 30
0.0
 40
0.06
100
AcDbArc
 50
180.0
 51
270.0
  0
LINE
  5
B47
100
AcDbEntity
  8
0
  6
CONTINUOUS
100
AcDbLine
 10
78.40536
 20
13.927366
 30
0.0
 11
78.40536
 21
13.133509
 31
0.0
  0
LINE
  5
B48
100
AcDbEntity
  8
0
  6
CONTINUOUS
100
AcDbLine
 10
78.90536
 20
13.927366
 30
0.0
 11
78.90536
 21
13.133509
 31
0.0
  0
LINE
  5
B49
100
AcDbEntity
  8
0
100
AcDbLine
 10
79.144157
 20
13.130437
 30
0.0
 11
79.331157
 21
13.130437
 31
0.0
  0
LINE
  5
B4A
100
AcDbEntity
  8
0
  6
CONTINUOUS
100
AcDbLine
 10
79.144157
 20
13.343437
 30
0.0
 11
79.06536
 21
13.343437
 31
0.0
  0
LINE
  5
B4B
100
AcDbEntity
  8
0
  6
CONTINUOUS
100
AcDbLine
 10
79.144157
 20
13.717437
 30
0.0
 11
79.06536
 21
13.717437
 31
0.0
  0
LINE
  5
B4C
100
AcDbEntity
  8
0
100
AcDbLine
 10
79.144157
 20
13.717437
 30
0.0
 11
79.144157
 21
13.343437
 31
0.0
  0
LINE
  5
B4D
100
AcDbEntity
  8
0
100
AcDbLine
 10
79.144157
 20
13.331973
 30
0.0
 11
79.331157
 21
13.331973
 31
0.0
  0
LINE
  5
B4E
100
AcDbEntity
  8
0
100
AcDbLine
 10
79.144157
 20
13.728901
 30
0.0
 11
79.331157
 21
13.728901
 31
0.0
  0
LINE
  5
B4F
100
AcDbEntity
  8
0
100
AcDbLine
 10
79.144157
 20
13.927366
 30
0.0
 11
79.331157
 21
13.927366
 31
0.0
  0
LINE
  5
B50
100
AcDbEntity
  8
0
100
AcDbLine
 10
79.331157
 20
13.927366
 30
0.0
 11
79.331157
 21
13.130437
 31
0.0
  0
LINE
  5
B51
100
AcDbEntity
  8
0
100
AcDbLine
 10
79.144157
 20
13.927366
 30
0.0
 11
79.144157
 21
13.130437
 31
0.0
  0
LINE
  5
B52
100
AcDbEntity
  8
0
  6
CONTINUOUS
100
AcDbLine
 10
79.06536
 20
13.874187
 30
0.0
 11
79.06536
 21
13.186687
 31
0.0
  0
LINE
  5
B53
100
AcDbEntity
  8
0
100
AcDbLine
 10
41.86291
 20
2.278431
 30
0.0
 11
43.408076
 21
2.278431
 31
0.0
  0
LINE
  5
B54
100
AcDbEntity
  8
0
100
AcDbLine
 10
41.86291
 20
3.43581
 30
0.0
 11
43.408076
 21
3.43571
 31
0.0
  0
LINE
  5
B55
100
AcDbEntity
  8
0
100
AcDbLine
 10
41.86291
 20
2.278431
 30
0.0
 11
41.86291
 21
2.547828
 31
0.0
  0
LINE
  5
B56
100
AcDbEntity
  8
0
  6
CONTINUOUS
100
AcDbLine
 10
41.54093
 20
3.070957
 30
0.0
 11
41.002137
 21
3.070957
 31
0.0
  0
LINE
  5
B57
100
AcDbEntity
  8
0
  6
CONTINUOUS
100
AcDbLine
 10
41.54093
 20
2.643233
 30
0.0
 11
41.002137
 21
2.643233
 31
0.0
  0
LINE
  5
B58
100
AcDbEntity
  8
0
  6
CONTINUOUS
100
AcDbLine
 10
41.54093
 20
2.42937
 30
0.0
 11
41.002137
 21
2.42937
 31
0.0
  0
LINE
  5
B59
100
AcDbEntity
  8
0
  6
CONTINUOUS
100
AcDbLine
 10
41.54093
 20
3.28482
 30
0.0
 11
41.002137
 21
3.28482
 31
0.0
  0
LINE
  5
B5A
100
AcDbEntity
  8
0
  6
CONTINUOUS
100
AcDbLine
 10
41.002137
 20
2.42937
 30
0.0
 11
41.002137
 21
3.28482
 31
0.0
  0
ARC
  5
B5B
100
AcDbEntity
  8
0
  6
CONTINUOUS
100
AcDbCircle
 10
40.980585
 20
3.16286
 30
0.0
 40
0.064655
100
AcDbArc
 50
90.0
 51
180.0
  0
LINE
  5
B5C
100
AcDbEntity
  8
0
  6
CONTINUOUS
100
AcDbLine
 10
40.91593
 20
2.55133
 30
0.0
 11
40.91593
 21
3.16286
 31
0.0
  0
ARC
  5
B5D
100
AcDbEntity
  8
0
  6
CONTINUOUS
100
AcDbCircle
 10
40.980585
 20
2.55133
 30
0.0
 40
0.064655
100
AcDbArc
 50
180.0
 51
270.0
  0
LINE
  5
B5E
100
AcDbEntity
  8
0
  6
CONTINUOUS
100
AcDbLine
 10
41.002137
 20
2.486675
 30
0.0
 11
40.980585
 21
2.486675
 31
0.0
  0
LINE
  5
B5F
100
AcDbEntity
  8
0
  6
CONTINUOUS
100
AcDbLine
 10
41.002137
 20
3.227515
 30
0.0
 11
40.980585
 21
3.227515
 31
0.0
  0
LINE
  5
B60
100
AcDbEntity
  8
0
100
AcDbLine
 10
41.86291
 20
3.166362
 30
0.0
 11
41.86291
 21
3.43581
 31
0.0
  0
LINE
  5
B61
100
AcDbEntity
  8
0
  6
CONTINUOUS
100
AcDbLine
 10
41.713344
 20
2.486675
 30
0.0
 11
41.713344
 21
3.227515
 31
0.0
  0
LINE
  5
B62
100
AcDbEntity
  8
0
  6
CONTINUOUS
100
AcDbLine
 10
41.54093
 20
2.42937
 30
0.0
 11
41.54093
 21
3.28482
 31
0.0
  0
LINE
  5
B63
100
AcDbEntity
  8
0
  6
CONTINUOUS
100
AcDbLine
 10
41.86291
 20
2.547828
 30
0.0
 11
41.713344
 21
2.547828
 31
0.0
  0
LINE
  5
B64
100
AcDbEntity
  8
0
  6
CONTINUOUS
100
AcDbLine
 10
41.713344
 20
2.486675
 30
0.0
 11
41.54093
 21
2.486675
 31
0.0
  0
LINE
  5
B65
100
AcDbEntity
  8
0
  6
CONTINUOUS
100
AcDbLine
 10
41.86291
 20
3.166362
 30
0.0
 11
41.713344
 21
3.166362
 31
0.0
  0
LINE
  5
B66
100
AcDbEntity
  8
0
  6
CONTINUOUS
100
AcDbLine
 10
41.713344
 20
3.227515
 30
0.0
 11
41.54093
 21
3.227515
 31
0.0
  0
LINE
  5
B67
100
AcDbEntity
  8
0
100
AcDbLine
 10
41.86291
 20
3.166362
 30
0.0
 11
41.86291
 21
2.547828
 31
0.0
  0
LINE
  5
B68
100
AcDbEntity
  8
0
100
AcDbLine
 10
43.02989
 20
3.776826
 30
0.0
 11
43.02989
 21
3.489596
 31
0.0
  0
LINE
  5
B69
100
AcDbEntity
  8
0
100
AcDbLine
 10
42.245499
 20
3.776826
 30
0.0
 11
42.245499
 21
3.489682
 31
0.0
  0
LINE
  5
B6A
100
AcDbEntity
  8
0
100
AcDbLine
 10
42.437563
 20
3.776826
 30
0.0
 11
42.437531
 21
3.489661
 31
0.0
  0
LINE
  5
B6B
100
AcDbEntity
  8
0
100
AcDbLine
 10
42.822507
 20
3.776826
 30
0.0
 11
42.822476
 21
3.489619
 31
0.0
  0
LINE
  5
B6C
100
AcDbEntity
  8
0
  6
CONTINUOUS
100
AcDbLine
 10
43.557642
 20
2.486675
 30
0.0
 11
43.730056
 21
2.486675
 31
0.0
  0
LINE
  5
B6D
100
AcDbEntity
  8
0
  6
CONTINUOUS
100
AcDbLine
 10
43.557642
 20
3.227515
 30
0.0
 11
43.730056
 21
3.227515
 31
0.0
  0
LINE
  5
B6E
100
AcDbEntity
  8
0
100
AcDbLine
 10
43.408076
 20
2.547828
 30
0.0
 11
43.408076
 21
2.278431
 31
0.0
  0
LINE
  5
B6F
100
AcDbEntity
  8
0
100
AcDbLine
 10
42.245499
 20
3.489682
 30
0.0
 11
43.02989
 21
3.489596
 31
0.0
  0
TEXT
  5
B70
100
AcDbEntity
  8
0
100
AcDbText
 10
42.211778
 20
2.606684
 30
0.0
 40
0.107759
  1
TRANSDUCER
100
AcDbText
  0
LINE
  5
B71
100
AcDbEntity
  8
0
100
AcDbLine
 10
42.245499
 20
3.489682
 30
0.0
 11
42.245495
 21
3.435785
 31
0.0
  0
TEXT
  5
B72
100
AcDbEntity
  8
0
100
AcDbText
 10
42.211778
 20
2.786282
 30
0.0
 40
0.107759
  1
FLOW
100
AcDbText
  0
TEXT
  5
B73
100
AcDbEntity
  8
0
100
AcDbText
 10
42.211778
 20
2.96588
 30
0.0
 40
0.107759
  1
FUEL
100
AcDbText
  0
LINE
  5
B74
100
AcDbEntity
  8
0
100
AcDbLine
 10
43.408076
 20
3.166362
 30
0.0
 11
43.408076
 21
3.43571
 31
0.0
  0
LINE
  5
B75
100
AcDbEntity
  8
0
  6
CONTINUOUS
100
AcDbLine
 10
43.557642
 20
2.486675
 30
0.0
 11
43.557642
 21
3.227515
 31
0.0
  0
LINE
  5
B76
100
AcDbEntity
  8
0
  6
CONTINUOUS
100
AcDbLine
 10
43.408076
 20
2.547828
 30
0.0
 11
43.557642
 21
2.547828
 31
0.0
  0
LINE
  5
B77
100
AcDbEntity
  8
0
  6
CONTINUOUS
100
AcDbLine
 10
43.408076
 20
3.166362
 30
0.0
 11
43.557642
 21
3.166362
 31
0.0
  0
LINE
  5
B78
100
AcDbEntity
  8
0
100
AcDbLine
 10
43.408076
 20
3.166362
 30
0.0
 11
43.408076
 21
2.547828
 31
0.0
  0
LINE
  5
B79
100
AcDbEntity
  8
0
100
AcDbLine
 10
43.02989
 20
3.489596
 30
0.0
 11
43.029886
 21
3.435734
 31
0.0
  0
ARC
  5
B7A
100
AcDbEntity
  8
0
  6
CONTINUOUS
100
AcDbCircle
 10
44.290401
 20
3.16286
 30
0.0
 40
0.064655
100
AcDbArc
 50
0.0
 51
90.0
  0
LINE
  5
B7B
100
AcDbEntity
  8
0
  6
CONTINUOUS
100
AcDbLine
 10
44.268849
 20
2.42937
 30
0.0
 11
44.268849
 21
3.28482
 31
0.0
  0
LINE
  5
B7C
100
AcDbEntity
  8
0
  6
CONTINUOUS
100
AcDbLine
 10
43.730056
 20
2.42937
 30
0.0
 11
43.730056
 21
3.28482
 31
0.0
  0
LINE
  5
B7D
100
AcDbEntity
  8
0
  6
CONTINUOUS
100
AcDbLine
 10
44.355056
 20
2.55133
 30
0.0
 11
44.355056
 21
3.16286
 31
0.0
  0
LINE
  5
B7E
100
AcDbEntity
  8
0
  6
CONTINUOUS
100
AcDbLine
 10
44.268849
 20
2.486675
 30
0.0
 11
44.290401
 21
2.486675
 31
0.0
  0
LINE
  5
B7F
100
AcDbEntity
  8
0
  6
CONTINUOUS
100
AcDbLine
 10
43.730056
 20
2.643233
 30
0.0
 11
44.268849
 21
2.643233
 31
0.0
  0
ARC
  5
B80
100
AcDbEntity
  8
0
  6
CONTINUOUS
100
AcDbCircle
 10
44.290401
 20
2.55133
 30
0.0
 40
0.064655
100
AcDbArc
 50
270.0
 51
0.0
  0
LINE
  5
B81
100
AcDbEntity
  8
0
  6
CONTINUOUS
100
AcDbLine
 10
43.730056
 20
2.42937
 30
0.0
 11
44.268849
 21
2.42937
 31
0.0
  0
LINE
  5
B82
100
AcDbEntity
  8
0
  6
CONTINUOUS
100
AcDbLine
 10
43.730056
 20
3.070957
 30
0.0
 11
44.268849
 21
3.070957
 31
0.0
  0
LINE
  5
B83
100
AcDbEntity
  8
0
  6
CONTINUOUS
100
AcDbLine
 10
43.730056
 20
3.28482
 30
0.0
 11
44.268849
 21
3.28482
 31
0.0
  0
LINE
  5
B84
100
AcDbEntity
  8
0
  6
CONTINUOUS
100
AcDbLine
 10
44.268849
 20
3.227515
 30
0.0
 11
44.290401
 21
3.227515
 31
0.0
  0
LINE
  5
B85
100
AcDbEntity
  8
0
100
AcDbLine
 10
42.245499
 20
3.776826
 30
0.0
 11
43.02989
 21
3.776826
 31
0.0
  0
ARC
  5
B86
100
AcDbEntity
  8
0
100
AcDbCircle
 10
42.76864
 20
3.884585
 30
0.0
 40
0.107759
100
AcDbArc
 50
359.993756
 51
90.0
  0
LINE
  5
B87
100
AcDbEntity
  8
0
100
AcDbLine
 10
42.383695
 20
3.884596
 30
0.0
 11
42.876399
 21
3.884573
 31
0.0
  0
LINE
  5
B88
100
AcDbEntity
  8
0
100
AcDbLine
 10
42.491454
 20
3.992343
 30
0.0
 11
42.76864
 21
3.992343
 31
0.0
  0
LINE
  5
B89
100
AcDbEntity
  8
0
100
AcDbLine
 10
42.383695
 20
3.884596
 30
0.0
 11
42.383683
 21
3.776826
 31
0.0
  0
ARC
  5
B8A
100
AcDbEntity
  8
0
100
AcDbCircle
 10
42.491454
 20
3.884585
 30
0.0
 40
0.107759
100
AcDbArc
 50
90.0
 51
179.993756
  0
LINE
  5
B8B
100
AcDbEntity
  8
0
100
AcDbLine
 10
42.876399
 20
3.884573
 30
0.0
 11
42.876387
 21
3.776826
 31
0.0
  0
LINE
  5
B8C
100
AcDbEntity
  8
0
  6
CONTINUOUS
100
AcDbLine
 10
44.355056
 20
2.617867
 30
0.0
 11
47.164268
 21
2.617867
 31
0.0
  0
LINE
  5
B8D
100
AcDbEntity
  8
0
  6
CONTINUOUS
100
AcDbLine
 10
58.842229
 20
16.726192
 30
0.0
 11
53.165454
 21
16.726192
 31
0.0
  0
ARC
  5
B90
100
AcDbEntity
  8
0
  6
CONTINUOUS
100
AcDbCircle
 10
53.165454
 20
15.226192
 30
0.0
 40
1.5
100
AcDbArc
 50
90.0
 51
180.0
  0
ARC
  5
B94
100
AcDbEntity
  8
0
  6
CONTINUOUS
100
AcDbCircle
 10
53.165454
 20
15.226192
 30
0.0
 40
1.875
100
AcDbArc
 50
90.0
 51
180.0
  0
LINE
  5
B95
100
AcDbEntity
  8
0
100
AcDbLine
 10
55.342229
 20
17.101192
 30
0.0
 11
53.165454
 21
17.101192
 31
0.0
  0
LINE
  5
B97
100
AcDbEntity
  8
0
100
AcDbLine
 10
63.052506
 20
8.18947
 30
0.0
 11
53.226683
 21
8.18947
 31
0.0
  0
ARC
  5
B9B
100
AcDbEntity
  8
0
100
AcDbCircle
 10
53.165454
 20
6.31547
 30
0.0
 40
1.5
100
AcDbArc
 50
90.0
 51
180.0
  0
ARC
  5
B9D
100
AcDbEntity
  8
0
100
AcDbCircle
 10
53.165454
 20
6.31547
 30
0.0
 40
1.875
100
AcDbArc
 50
88.128644
 51
178.343145
  0
ARC
  5
B9F
100
AcDbEntity
  8
0
100
AcDbCircle
 10
53.165454
 20
6.31547
 30
0.0
 40
1.875
100
AcDbArc
 50
178.72654
 51
180.0
  0
LINE
  5
BA1
100
AcDbEntity
  8
0
  6
CONTINUOUS
100
AcDbLine
 10
78.764857
 20
17.187116
 30
0.0
 11
78.099857
 21
17.187116
 31
0.0
  0
LINE
  5
BA2
100
AcDbEntity
  8
0
  6
CONTINUOUS
100
AcDbLine
 10
78.764857
 20
17.451074
 30
0.0
 11
78.099857
 21
17.451074
 31
0.0
  0
LINE
  5
BA3
100
AcDbEntity
  8
0
  6
CONTINUOUS
100
AcDbLine
 10
78.764857
 20
16.659202
 30
0.0
 11
78.099857
 21
16.659202
 31
0.0
  0
LINE
  5
BA4
100
AcDbEntity
  8
0
  6
CONTINUOUS
100
AcDbLine
 10
78.764857
 20
16.395244
 30
0.0
 11
78.099857
 21
16.395244
 31
0.0
  0
LINE
  5
BA5
100
AcDbEntity
  8
0
  6
CONTINUOUS
100
AcDbLine
 10
78.764857
 20
17.451074
 30
0.0
 11
78.764857
 21
16.395244
 31
0.0
  0
LINE
  5
BA6
100
AcDbEntity
  8
0
  6
CONTINUOUS
100
AcDbLine
 10
78.977657
 20
17.380346
 30
0.0
 11
78.977657
 21
16.465971
 31
0.0
  0
LINE
  5
BA7
100
AcDbEntity
  8
0
100
AcDbLine
 10
79.331168
 20
17.451074
 30
0.0
 11
79.331168
 21
16.391159
 31
0.0
  0
LINE
  5
BA8
100
AcDbEntity
  8
0
100
AcDbLine
 10
79.082458
 20
17.451074
 30
0.0
 11
79.082458
 21
16.391159
 31
0.0
  0
LINE
  5
BA9
100
AcDbEntity
  8
0
  6
CONTINUOUS
100
AcDbLine
 10
78.977657
 20
16.465971
 30
0.0
 11
78.764857
 21
16.465971
 31
0.0
  0
LINE
  5
BAA
100
AcDbEntity
  8
0
100
AcDbLine
 10
79.082458
 20
16.391159
 30
0.0
 11
79.331168
 21
16.391159
 31
0.0
  0
LINE
  5
BAB
100
AcDbEntity
  8
0
  6
CONTINUOUS
100
AcDbLine
 10
78.977657
 20
17.380346
 30
0.0
 11
78.764857
 21
17.380346
 31
0.0
  0
LINE
  5
BAC
100
AcDbEntity
  8
0
100
AcDbLine
 10
79.082458
 20
17.171869
 30
0.0
 11
79.082458
 21
16.674449
 31
0.0
  0
LINE
  5
BAD
100
AcDbEntity
  8
0
100
AcDbLine
 10
79.082458
 20
16.659202
 30
0.0
 11
79.331168
 21
16.659202
 31
0.0
  0
LINE
  5
BAE
100
AcDbEntity
  8
0
100
AcDbLine
 10
79.082458
 20
17.187116
 30
0.0
 11
79.331168
 21
17.187116
 31
0.0
  0
LINE
  5
BAF
100
AcDbEntity
  8
0
100
AcDbLine
 10
79.082458
 20
17.451074
 30
0.0
 11
79.331168
 21
17.451074
 31
0.0
  0
LINE
  5
BB0
100
AcDbEntity
  8
0
  6
CONTINUOUS
100
AcDbLine
 10
79.082458
 20
16.674449
 30
0.0
 11
78.977657
 21
16.674449
 31
0.0
  0
LINE
  5
BB1
100
AcDbEntity
  8
0
  6
CONTINUOUS
100
AcDbLine
 10
79.082458
 20
17.171869
 30
0.0
 11
78.977657
 21
17.171869
 31
0.0
  0
LINE
  5
BB2
100
AcDbEntity
  8
0
  6
CONTINUOUS
100
AcDbLine
 10
78.099857
 20
17.451074
 30
0.0
 11
78.099857
 21
16.395244
 31
0.0
  0
ARC
  5
BB3
100
AcDbEntity
  8
0
  6
CONTINUOUS
100
AcDbCircle
 10
78.073257
 20
16.545771
 30
0.0
 40
0.0798
100
AcDbArc
 50
180.0
 51
270.0
  0
LINE
  5
BB4
100
AcDbEntity
  8
0
  6
CONTINUOUS
100
AcDbLine
 10
78.099857
 20
16.465971
 30
0.0
 11
78.073257
 21
16.465971
 31
0.0
  0
LINE
  5
BB5
100
AcDbEntity
  8
0
  6
CONTINUOUS
100
AcDbLine
 10
75.666157
 20
16.674449
 30
0.0
 11
77.993457
 21
16.674449
 31
0.0
  0
LINE
  5
BB6
100
AcDbEntity
  8
0
  6
CONTINUOUS
100
AcDbLine
 10
75.666157
 20
17.171869
 30
0.0
 11
77.993457
 21
17.171869
 31
0.0
  0
LINE
  5
BB7
100
AcDbEntity
  8
0
  6
CONTINUOUS
100
AcDbLine
 10
77.993457
 20
17.300546
 30
0.0
 11
77.993457
 21
16.545771
 31
0.0
  0
LINE
  5
BB8
100
AcDbEntity
  8
0
  6
CONTINUOUS
100
AcDbLine
 10
78.099857
 20
17.380346
 30
0.0
 11
78.073257
 21
17.380346
 31
0.0
  0
ARC
  5
BB9
100
AcDbEntity
  8
0
  6
CONTINUOUS
100
AcDbCircle
 10
78.073257
 20
17.300546
 30
0.0
 40
0.0798
100
AcDbArc
 50
90.0
 51
180.0
  0
LINE
  5
C72
100
AcDbEntity
  8
0
  6
CONTINUOUS
100
AcDbLine
 10
51.676419
 20
14.646192
 30
0.0
 11
51.676419
 21
15.146192
 31
0.0
  0
LINE
  5
C73
100
AcDbEntity
  8
0
  6
CONTINUOUS
100
AcDbLine
 10
51.874883
 20
14.646192
 30
0.0
 11
51.874883
 21
15.146192
 31
0.0
  0
LINE
  5
C74
100
AcDbEntity
  8
0
  6
CONTINUOUS
100
AcDbLine
 10
51.27949
 20
14.646192
 30
0.0
 11
51.27949
 21
15.146192
 31
0.0
  0
LINE
  5
C75
100
AcDbEntity
  8
0
  6
CONTINUOUS
100
AcDbLine
 10
51.081026
 20
14.646192
 30
0.0
 11
51.081026
 21
15.146192
 31
0.0
  0
LINE
  5
C76
100
AcDbEntity
  8
0
  6
CONTINUOUS
100
AcDbLine
 10
52.463752
 20
13.331973
 30
0.0
 11
52.963752
 21
13.331973
 31
0.0
  0
LINE
  5
C77
100
AcDbEntity
  8
0
  6
CONTINUOUS
100
AcDbLine
 10
52.463752
 20
13.728901
 30
0.0
 11
52.963752
 21
13.728901
 31
0.0
  0
LINE
  5
C78
100
AcDbEntity
  8
0
  6
CONTINUOUS
100
AcDbLine
 10
52.463752
 20
13.927366
 30
0.0
 11
52.963752
 21
13.927366
 31
0.0
  0
LINE
  5
C79
100
AcDbEntity
  8
0
  6
CONTINUOUS
100
AcDbLine
 10
52.463752
 20
13.133509
 30
0.0
 11
52.963752
 21
13.133509
 31
0.0
  0
LINE
  5
C7A
100
AcDbEntity
  8
0
  6
CONTINUOUS
100
AcDbLine
 10
52.963752
 20
13.927366
 30
0.0
 11
52.963752
 21
13.133509
 31
0.0
  0
LINE
  5
C7B
100
AcDbEntity
  8
0
  6
CONTINUOUS
100
AcDbLine
 10
52.963752
 20
13.186687
 30
0.0
 11
52.983752
 21
13.186687
 31
0.0
  0
LINE
  5
C7C
100
AcDbEntity
  8
0
  6
CONTINUOUS
100
AcDbLine
 10
52.963752
 20
13.874187
 30
0.0
 11
52.983752
 21
13.874187
 31
0.0
  0
ARC
  5
C7D
100
AcDbEntity
  8
0
  6
CONTINUOUS
100
AcDbCircle
 10
52.983752
 20
13.814187
 30
0.0
 40
0.06
100
AcDbArc
 50
0.0
 51
90.0
  0
LINE
  5
C7E
100
AcDbEntity
  8
0
  6
CONTINUOUS
100
AcDbLine
 10
53.043752
 20
13.814187
 30
0.0
 11
53.043752
 21
13.246687
 31
0.0
  0
ARC
  5
C7F
100
AcDbEntity
  8
0
  6
CONTINUOUS
100
AcDbCircle
 10
52.983752
 20
13.246687
 30
0.0
 40
0.06
100
AcDbArc
 50
270.0
 51
0.0
  0
LINE
  5
C80
100
AcDbEntity
  8
0
  6
CONTINUOUS
100
AcDbLine
 10
52.463752
 20
13.927366
 30
0.0
 11
52.463752
 21
13.133509
 31
0.0
  0
ARC
  5
C81
100
AcDbEntity
  8
0
  6
CONTINUOUS
100
AcDbCircle
 10
52.064954
 20
12.943437
 30
0.0
 40
0.3
100
AcDbArc
 50
90.0
 51
180.0
  0
LINE
  5
C82
100
AcDbEntity
  8
0
  6
CONTINUOUS
100
AcDbLine
 10
51.190954
 20
14.347395
 30
0.0
 11
51.190954
 21
12.574683
 31
0.0
  0
LWPOLYLINE
  5
C83
100
AcDbEntity
  8
0
100
AcDbPolyline
 90
        4
 70
     1
 43
0.0
 10
51.659468
 20
12.924821
 10
51.659468
 20
14.122297
 10
51.302839
 20
14.122297
 10
51.302839
 20
12.924821
  0
LINE
  5
C84
100
AcDbEntity
  8
0
  6
CONTINUOUS
100
AcDbLine
 10
51.081026
 20
12.414683
 30
0.0
 11
51.874883
 21
12.414683
 31
0.0
  0
LINE
  5
C85
100
AcDbEntity
  8
0
  6
CONTINUOUS
100
AcDbLine
 10
51.081026
 20
11.914683
 30
0.0
 11
51.874883
 21
11.914683
 31
0.0
  0
LINE
  5
C86
100
AcDbEntity
  8
0
  6
CONTINUOUS
100
AcDbLine
 10
51.194204
 20
11.834683
 30
0.0
 11
51.761704
 21
11.834683
 31
0.0
  0
LINE
  5
C87
100
AcDbEntity
  8
0
  6
CONTINUOUS
100
AcDbLine
 10
51.134204
 20
12.574683
 30
0.0
 11
51.821704
 21
12.574683
 31
0.0
  0
LINE
  5
C88
100
AcDbEntity
  8
0
  6
CONTINUOUS
100
AcDbLine
 10
51.676419
 20
12.414683
 30
0.0
 11
51.676419
 21
11.914683
 31
0.0
  0
LINE
  5
C89
100
AcDbEntity
  8
0
  6
CONTINUOUS
100
AcDbLine
 10
51.874883
 20
12.414683
 30
0.0
 11
51.874883
 21
11.914683
 31
0.0
  0
ARC
  5
C8A
100
AcDbEntity
  8
0
  6
CONTINUOUS
100
AcDbCircle
 10
51.761704
 20
11.894683
 30
0.0
 40
0.06
100
AcDbArc
 50
270.0
 51
0.0
  0
LINE
  5
C8B
100
AcDbEntity
  8
0
  6
CONTINUOUS
100
AcDbLine
 10
51.821704
 20
11.914683
 30
0.0
 11
51.821704
 21
11.894683
 31
0.0
  0
LINE
  5
C8C
100
AcDbEntity
  8
0
  6
CONTINUOUS
100
AcDbLine
 10
51.821704
 20
12.574683
 30
0.0
 11
51.821704
 21
12.414683
 31
0.0
  0
LINE
  5
C8D
100
AcDbEntity
  8
0
  6
CONTINUOUS
100
AcDbLine
 10
51.764954
 20
12.943437
 30
0.0
 11
51.764954
 21
12.574683
 31
0.0
  0
LINE
  5
C8E
100
AcDbEntity
  8
0
  6
CONTINUOUS
100
AcDbLine
 10
51.081026
 20
12.414683
 30
0.0
 11
51.081026
 21
11.914683
 31
0.0
  0
LINE
  5
C8F
100
AcDbEntity
  8
0
  6
CONTINUOUS
100
AcDbLine
 10
51.27949
 20
12.414683
 30
0.0
 11
51.27949
 21
11.914683
 31
0.0
  0
ARC
  5
C90
100
AcDbEntity
  8
0
  6
CONTINUOUS
100
AcDbCircle
 10
51.194204
 20
11.894683
 30
0.0
 40
0.06
100
AcDbArc
 50
180.0
 51
270.0
  0
LINE
  5
C91
100
AcDbEntity
  8
0
  6
CONTINUOUS
100
AcDbLine
 10
51.134204
 20
11.914683
 30
0.0
 11
51.134204
 21
11.894683
 31
0.0
  0
LINE
  5
C92
100
AcDbEntity
  8
0
  6
CONTINUOUS
100
AcDbLine
 10
51.134204
 20
12.574683
 30
0.0
 11
51.134204
 21
12.414683
 31
0.0
  0
LINE
  5
C93
100
AcDbEntity
  8
0
  6
CONTINUOUS
100
AcDbLine
 10
51.081026
 20
14.646192
 30
0.0
 11
51.874883
 21
14.646192
 31
0.0
  0
LINE
  5
C94
100
AcDbEntity
  8
0
  6
CONTINUOUS
100
AcDbLine
 10
51.134204
 20
14.486192
 30
0.0
 11
51.821704
 21
14.486192
 31
0.0
  0
ARC
  5
C95
100
AcDbEntity
  8
0
  6
CONTINUOUS
100
AcDbCircle
 10
52.064954
 20
14.117437
 30
0.0
 40
0.3
100
AcDbArc
 50
180.0
 51
270.0
  0
LINE
  5
C96
100
AcDbEntity
  8
0
  6
CONTINUOUS
100
AcDbLine
 10
52.303752
 20
13.874187
 30
0.0
 11
52.303752
 21
13.186687
 31
0.0
  0
LINE
  5
C97
100
AcDbEntity
  8
0
  6
CONTINUOUS
100
AcDbLine
 10
52.064954
 20
13.243437
 30
0.0
 11
52.303752
 21
13.243437
 31
0.0
  0
LINE
  5
C98
100
AcDbEntity
  8
0
  6
CONTINUOUS
100
AcDbLine
 10
52.064954
 20
13.817437
 30
0.0
 11
52.303752
 21
13.817437
 31
0.0
  0
LINE
  5
C99
100
AcDbEntity
  8
0
100
AcDbLine
 10
52.064954
 20
13.243437
 30
0.0
 11
52.064954
 21
13.817437
 31
0.0
  0
LINE
  5
C9A
100
AcDbEntity
  8
0
  6
CONTINUOUS
100
AcDbLine
 10
52.303752
 20
13.186687
 30
0.0
 11
52.463752
 21
13.186687
 31
0.0
  0
LINE
  5
C9B
100
AcDbEntity
  8
0
  6
CONTINUOUS
100
AcDbLine
 10
52.303752
 20
13.874187
 30
0.0
 11
52.463752
 21
13.874187
 31
0.0
  0
LINE
  5
C9C
100
AcDbEntity
  8
0
  6
CONTINUOUS
100
AcDbLine
 10
51.764954
 20
14.347395
 30
0.0
 11
51.764954
 21
14.486192
 31
0.0
  0
LINE
  5
C9D
100
AcDbEntity
  8
0
  6
CONTINUOUS
100
AcDbLine
 10
51.821704
 20
14.486192
 30
0.0
 11
51.821704
 21
14.646192
 31
0.0
  0
LINE
  5
C9E
100
AcDbEntity
  8
0
  6
CONTINUOUS
100
AcDbLine
 10
51.764954
 20
14.347395
 30
0.0
 11
51.764954
 21
14.117437
 31
0.0
  0
LINE
  5
C9F
100
AcDbEntity
  8
0
  6
CONTINUOUS
100
AcDbLine
 10
51.134204
 20
14.486192
 30
0.0
 11
51.134204
 21
14.646192
 31
0.0
  0
LINE
  5
CA0
100
AcDbEntity
  8
0
  6
CONTINUOUS
100
AcDbLine
 10
51.190954
 20
14.347395
 30
0.0
 11
51.190954
 21
14.486192
 31
0.0
  0
LINE
  5
CA1
100
AcDbEntity
  8
0
  6
CONTINUOUS
100
AcDbLine
 10
51.081026
 20
15.146192
 30
0.0
 11
51.874883
 21
15.146192
 31
0.0
  0
LINE
  5
CA2
100
AcDbEntity
  8
0
  6
CONTINUOUS
100
AcDbLine
 10
51.194204
 20
15.226192
 30
0.0
 11
51.761704
 21
15.226192
 31
0.0
  0
ARC
  5
CA3
100
AcDbEntity
  8
0
  6
CONTINUOUS
100
AcDbCircle
 10
51.761704
 20
15.166192
 30
0.0
 40
0.06
100
AcDbArc
 50
0.0
 51
90.0
  0
LINE
  5
CA4
100
AcDbEntity
  8
0
  6
CONTINUOUS
100
AcDbLine
 10
51.821704
 20
15.146192
 30
0.0
 11
51.821704
 21
15.166192
 31
0.0
  0
ARC
  5
CA5
100
AcDbEntity
  8
0
  6
CONTINUOUS
100
AcDbCircle
 10
51.194204
 20
15.166192
 30
0.0
 40
0.06
100
AcDbArc
 50
90.0
 51
180.0
  0
LINE
  5
CA6
100
AcDbEntity
  8
0
  6
CONTINUOUS
100
AcDbLine
 10
51.134204
 20
15.146192
 30
0.0
 11
51.134204
 21
15.166192
 31
0.0
  0
LINE
  5
CA7
100
AcDbEntity
  8
0
100
AcDbLine
 10
51.290454
 20
15.226192
 30
0.0
 11
51.665454
 21
15.226192
 31
0.0
  0
LINE
  5
CA9
100
AcDbEntity
  8
0
100
AcDbLine
 10
53.043752
 20
13.717437
 30
0.0
 11
55.644468
 21
13.717437
 31
0.0
  0
LINE
  5
CAA
100
AcDbEntity
  8
0
100
AcDbLine
 10
53.043752
 20
13.343437
 30
0.0
 11
55.644468
 21
13.343437
 31
0.0
  0
LINE
  5
CAF
100
AcDbEntity
  8
0
  6
CONTINUOUS
100
AcDbLine
 10
58.455977
 20
13.728901
 30
0.0
 11
58.955977
 21
13.728901
 31
0.0
  0
LINE
  5
CB0
100
AcDbEntity
  8
0
  6
CONTINUOUS
100
AcDbLine
 10
58.455977
 20
13.927366
 30
0.0
 11
58.955977
 21
13.927366
 31
0.0
  0
LINE
  5
CB1
100
AcDbEntity
  8
0
  6
CONTINUOUS
100
AcDbLine
 10
58.455977
 20
13.331973
 30
0.0
 11
58.955977
 21
13.331973
 31
0.0
  0
LINE
  5
CB2
100
AcDbEntity
  8
0
  6
CONTINUOUS
100
AcDbLine
 10
58.455977
 20
13.133509
 30
0.0
 11
58.955977
 21
13.133509
 31
0.0
  0
TEXT
  5
CB3
100
AcDbEntity
  8
0
100
AcDbText
 10
57.091717
 20
13.650386
 30
0.0
 40
0.1
  1
FLOW
100
AcDbText
  0
LINE
  5
CB4
100
AcDbEntity
  8
0
100
AcDbLine
 10
56.710265
 20
13.906437
 30
0.0
 11
57.97018
 21
13.906437
 31
0.0
  0
LEADER
  5
CB5
100
AcDbEntity
  8
0
100
AcDbLeader
  3
STANDARD
 40
0.18
 41
0.18
 76
     2
 10
57.816175
 20
13.507526
 30
0.0
 10
56.9392
 20
13.507526
 30
0.0
 77
   256
213
0.0
223
0.09
233
0.0
1001
ACAD
1000
DSTYLE
1002
{
1070
     5
1000

1070
    77
1070
     0
1070
   147
1040
0.09
1070
   342
1005
0
1002
}
  0
LINE
  5
CB6
100
AcDbEntity
  8
0
100
AcDbLine
 10
56.710265
 20
13.154437
 30
0.0
 11
57.97018
 21
13.154437
 31
0.0
  0
LINE
  5
CB7
100
AcDbEntity
  8
0
100
AcDbLine
 10
56.523265
 20
13.817437
 30
0.0
 11
56.523265
 21
13.092937
 31
0.0
  0
LINE
  5
CB8
100
AcDbEntity
  8
0
100
AcDbLine
 10
56.710265
 20
13.967937
 30
0.0
 11
56.710265
 21
13.092937
 31
0.0
  0
LINE
  5
CB9
100
AcDbEntity
  8
0
  6
CONTINUOUS
100
AcDbLine
 10
56.384468
 20
13.186687
 30
0.0
 11
56.384468
 21
13.874187
 31
0.0
  0
LINE
  5
CBA
100
AcDbEntity
  8
0
  6
CONTINUOUS
100
AcDbLine
 10
56.224468
 20
13.133509
 30
0.0
 11
56.224468
 21
13.927366
 31
0.0
  0
LINE
  5
CBB
100
AcDbEntity
  8
0
  6
CONTINUOUS
100
AcDbLine
 10
55.724468
 20
13.133509
 30
0.0
 11
55.724468
 21
13.927366
 31
0.0
  0
LINE
  5
CBC
100
AcDbEntity
  8
0
  6
CONTINUOUS
100
AcDbLine
 10
55.644468
 20
13.246687
 30
0.0
 11
55.644468
 21
13.814187
 31
0.0
  0
LINE
  5
CBD
100
AcDbEntity
  8
0
  6
CONTINUOUS
100
AcDbLine
 10
56.384468
 20
13.186687
 30
0.0
 11
56.224468
 21
13.186687
 31
0.0
  0
ARC
  5
CBE
100
AcDbEntity
  8
0
  6
CONTINUOUS
100
AcDbCircle
 10
55.704468
 20
13.246687
 30
0.0
 40
0.06
100
AcDbArc
 50
180.0
 51
270.0
  0
LINE
  5
CBF
100
AcDbEntity
  8
0
  6
CONTINUOUS
100
AcDbLine
 10
55.724468
 20
13.186687
 30
0.0
 11
55.704468
 21
13.186687
 31
0.0
  0
LINE
  5
CC0
100
AcDbEntity
  8
0
  6
CONTINUOUS
100
AcDbLine
 10
56.224468
 20
13.331973
 30
0.0
 11
55.724468
 21
13.331973
 31
0.0
  0
LINE
  5
CC1
100
AcDbEntity
  8
0
  6
CONTINUOUS
100
AcDbLine
 10
56.224468
 20
13.133509
 30
0.0
 11
55.724468
 21
13.133509
 31
0.0
  0
LINE
  5
CC2
100
AcDbEntity
  8
0
100
AcDbLine
 10
56.523265
 20
13.092937
 30
0.0
 11
56.710265
 21
13.092937
 31
0.0
  0
LINE
  5
CC3
100
AcDbEntity
  8
0
100
AcDbLine
 10
56.523265
 20
13.193437
 30
0.0
 11
56.523265
 21
13.243437
 31
0.0
  0
LINE
  5
CC4
100
AcDbEntity
  8
0
  6
CONTINUOUS
100
AcDbLine
 10
56.523265
 20
13.243437
 30
0.0
 11
56.384468
 21
13.243437
 31
0.0
  0
LINE
  5
CC5
100
AcDbEntity
  8
0
  6
CONTINUOUS
100
AcDbLine
 10
56.384468
 20
13.874187
 30
0.0
 11
56.224468
 21
13.874187
 31
0.0
  0
ARC
  5
CC6
100
AcDbEntity
  8
0
  6
CONTINUOUS
100
AcDbCircle
 10
55.704468
 20
13.814187
 30
0.0
 40
0.06
100
AcDbArc
 50
90.0
 51
180.0
  0
LINE
  5
CC7
100
AcDbEntity
  8
0
  6
CONTINUOUS
100
AcDbLine
 10
55.724468
 20
13.874187
 30
0.0
 11
55.704468
 21
13.874187
 31
0.0
  0
LINE
  5
CC8
100
AcDbEntity
  8
0
  6
CONTINUOUS
100
AcDbLine
 10
56.224468
 20
13.728901
 30
0.0
 11
55.724468
 21
13.728901
 31
0.0
  0
LINE
  5
CC9
100
AcDbEntity
  8
0
  6
CONTINUOUS
100
AcDbLine
 10
56.224468
 20
13.927366
 30
0.0
 11
55.724468
 21
13.927366
 31
0.0
  0
LINE
  5
CCA
100
AcDbEntity
  8
0
100
AcDbLine
 10
56.523265
 20
13.967937
 30
0.0
 11
56.710265
 21
13.967937
 31
0.0
  0
LINE
  5
CCB
100
AcDbEntity
  8
0
100
AcDbLine
 10
56.523265
 20
13.817437
 30
0.0
 11
56.523265
 21
13.967937
 31
0.0
  0
LINE
  5
CCC
100
AcDbEntity
  8
0
  6
CONTINUOUS
100
AcDbLine
 10
56.523265
 20
13.817437
 30
0.0
 11
56.384468
 21
13.817437
 31
0.0
  0
LINE
  5
CCD
100
AcDbEntity
  8
0
100
AcDbLine
 10
56.523265
 20
13.530437
 30
0.0
 11
56.710265
 21
13.530437
 31
0.0
  0
LINE
  5
CCE
100
AcDbEntity
  8
0
100
AcDbLine
 10
58.15718
 20
13.092937
 30
0.0
 11
58.15718
 21
13.967937
 31
0.0
  0
LINE
  5
CCF
100
AcDbEntity
  8
0
100
AcDbLine
 10
57.97018
 20
13.092937
 30
0.0
 11
57.97018
 21
13.967937
 31
0.0
  0
LINE
  5
CD0
100
AcDbEntity
  8
0
  6
CONTINUOUS
100
AcDbLine
 10
58.295977
 20
13.186687
 30
0.0
 11
58.295977
 21
13.874187
 31
0.0
  0
LINE
  5
CD1
100
AcDbEntity
  8
0
  6
CONTINUOUS
100
AcDbLine
 10
58.455977
 20
13.133509
 30
0.0
 11
58.455977
 21
13.927366
 31
0.0
  0
LINE
  5
CD2
100
AcDbEntity
  8
0
100
AcDbLine
 10
57.97018
 20
13.092937
 30
0.0
 11
58.15718
 21
13.092937
 31
0.0
  0
LINE
  5
CD3
100
AcDbEntity
  8
0
  6
CONTINUOUS
100
AcDbLine
 10
58.295977
 20
13.186687
 30
0.0
 11
58.455977
 21
13.186687
 31
0.0
  0
LINE
  5
CD4
100
AcDbEntity
  8
0
100
AcDbLine
 10
58.15718
 20
13.243437
 30
0.0
 11
58.15718
 21
13.193437
 31
0.0
  0
LINE
  5
CD5
100
AcDbEntity
  8
0
  6
CONTINUOUS
100
AcDbLine
 10
58.15718
 20
13.243437
 30
0.0
 11
58.295977
 21
13.243437
 31
0.0
  0
LINE
  5
CD6
100
AcDbEntity
  8
0
100
AcDbLine
 10
57.97018
 20
13.967937
 30
0.0
 11
58.15718
 21
13.967937
 31
0.0
  0
LINE
  5
CD7
100
AcDbEntity
  8
0
100
AcDbLine
 10
58.15718
 20
13.817437
 30
0.0
 11
58.15718
 21
13.867437
 31
0.0
  0
LINE
  5
CD8
100
AcDbEntity
  8
0
  6
CONTINUOUS
100
AcDbLine
 10
58.15718
 20
13.817437
 30
0.0
 11
58.295977
 21
13.817437
 31
0.0
  0
LINE
  5
CD9
100
AcDbEntity
  8
0
  6
CONTINUOUS
100
AcDbLine
 10
58.295977
 20
13.874187
 30
0.0
 11
58.455977
 21
13.874187
 31
0.0
  0
LINE
  5
CDA
100
AcDbEntity
  8
0
100
AcDbLine
 10
57.97018
 20
13.530437
 30
0.0
 11
58.15718
 21
13.530437
 31
0.0
  0
LINE
  5
CDB
100
AcDbEntity
  8
0
  6
CONTINUOUS
100
AcDbLine
 10
58.955977
 20
13.133509
 30
0.0
 11
58.955977
 21
13.927366
 31
0.0
  0
LINE
  5
CDC
100
AcDbEntity
  8
0
  6
CONTINUOUS
100
AcDbLine
 10
59.035977
 20
13.246687
 30
0.0
 11
59.035977
 21
13.814187
 31
0.0
  0
LINE
  5
CDD
100
AcDbEntity
  8
0
  6
CONTINUOUS
100
AcDbLine
 10
58.955977
 20
13.186687
 30
0.0
 11
58.975977
 21
13.186687
 31
0.0
  0
ARC
  5
CDE
100
AcDbEntity
  8
0
  6
CONTINUOUS
100
AcDbCircle
 10
58.975977
 20
13.246687
 30
0.0
 40
0.06
100
AcDbArc
 50
270.0
 51
0.0
  0
ARC
  5
CDF
100
AcDbEntity
  8
0
  6
CONTINUOUS
100
AcDbCircle
 10
58.975977
 20
13.814187
 30
0.0
 40
0.06
100
AcDbArc
 50
0.0
 51
90.0
  0
LINE
  5
CE0
100
AcDbEntity
  8
0
  6
CONTINUOUS
100
AcDbLine
 10
58.955977
 20
13.874187
 30
0.0
 11
58.975977
 21
13.874187
 31
0.0
  0
LINE
  5
CE1
100
AcDbEntity
  8
0
100
AcDbLine
 10
55.644468
 20
13.717437
 30
0.0
 11
55.644468
 21
13.343437
 31
0.0
  0
LINE
  5
CE2
100
AcDbEntity
  8
0
100
AcDbLine
 10
59.035977
 20
13.717437
 30
0.0
 11
63.043752
 21
13.717437
 31
0.0
  0
LINE
  5
CE3
100
AcDbEntity
  8
0
100
AcDbLine
 10
59.035977
 20
13.343437
 30
0.0
 11
63.043752
 21
13.343437
 31
0.0
  0
LINE
  5
CE4
100
AcDbEntity
  8
0
  6
CONTINUOUS
100
AcDbLine
 10
63.623752
 20
13.927366
 30
0.0
 11
63.123752
 21
13.927366
 31
0.0
  0
LINE
  5
CE5
100
AcDbEntity
  8
0
  6
CONTINUOUS
100
AcDbLine
 10
63.623752
 20
13.728901
 30
0.0
 11
63.123752
 21
13.728901
 31
0.0
  0
LINE
  5
CE6
100
AcDbEntity
  8
0
  6
CONTINUOUS
100
AcDbLine
 10
63.623752
 20
13.133509
 30
0.0
 11
63.123752
 21
13.133509
 31
0.0
  0
LINE
  5
CE7
100
AcDbEntity
  8
0
  6
CONTINUOUS
100
AcDbLine
 10
63.623752
 20
13.331973
 30
0.0
 11
63.123752
 21
13.331973
 31
0.0
  0
LWPOLYLINE
  5
CE8
100
AcDbEntity
  8
0
100
AcDbPolyline
 90
        4
 70
     1
 43
0.0
 10
65.345122
 20
13.348923
 10
64.147646
 20
13.348923
 10
64.147646
 20
13.705552
 10
65.345122
 20
13.705552
  0
LINE
  5
CE9
100
AcDbEntity
  8
0
  6
CONTINUOUS
100
AcDbLine
 10
63.783752
 20
13.874187
 30
0.0
 11
63.783752
 21
13.186687
 31
0.0
  0
LINE
  5
CEA
100
AcDbEntity
  8
0
  6
CONTINUOUS
100
AcDbLine
 10
65.695261
 20
13.874187
 30
0.0
 11
65.695261
 21
13.186687
 31
0.0
  0
LINE
  5
CEB
100
AcDbEntity
  8
0
  6
CONTINUOUS
100
AcDbLine
 10
66.435261
 20
13.814187
 30
0.0
 11
66.435261
 21
13.246687
 31
0.0
  0
LINE
  5
CEC
100
AcDbEntity
  8
0
  6
CONTINUOUS
100
AcDbLine
 10
66.355261
 20
13.927366
 30
0.0
 11
66.355261
 21
13.133509
 31
0.0
  0
LINE
  5
CED
100
AcDbEntity
  8
0
  6
CONTINUOUS
100
AcDbLine
 10
65.855261
 20
13.927366
 30
0.0
 11
65.855261
 21
13.133509
 31
0.0
  0
LINE
  5
CEE
100
AcDbEntity
  8
0
  6
CONTINUOUS
100
AcDbLine
 10
63.623752
 20
13.927366
 30
0.0
 11
63.623752
 21
13.133509
 31
0.0
  0
LINE
  5
CEF
100
AcDbEntity
  8
0
  6
CONTINUOUS
100
AcDbLine
 10
63.922549
 20
13.817437
 30
0.0
 11
65.695261
 21
13.817437
 31
0.0
  0
LINE
  5
CF0
100
AcDbEntity
  8
0
  6
CONTINUOUS
100
AcDbLine
 10
65.855261
 20
13.728901
 30
0.0
 11
66.355261
 21
13.728901
 31
0.0
  0
LINE
  5
CF1
100
AcDbEntity
  8
0
  6
CONTINUOUS
100
AcDbLine
 10
65.855261
 20
13.927366
 30
0.0
 11
66.355261
 21
13.927366
 31
0.0
  0
LINE
  5
CF2
100
AcDbEntity
  8
0
  6
CONTINUOUS
100
AcDbLine
 10
66.355261
 20
13.874187
 30
0.0
 11
66.375261
 21
13.874187
 31
0.0
  0
ARC
  5
CF3
100
AcDbEntity
  8
0
  6
CONTINUOUS
100
AcDbCircle
 10
66.375261
 20
13.814187
 30
0.0
 40
0.06
100
AcDbArc
 50
0.0
 51
90.0
  0
LINE
  5
CF4
100
AcDbEntity
  8
0
  6
CONTINUOUS
100
AcDbLine
 10
65.695261
 20
13.874187
 30
0.0
 11
65.855261
 21
13.874187
 31
0.0
  0
LINE
  5
CF5
100
AcDbEntity
  8
0
  6
CONTINUOUS
100
AcDbLine
 10
63.922549
 20
13.817437
 30
0.0
 11
63.783752
 21
13.817437
 31
0.0
  0
LINE
  5
CF6
100
AcDbEntity
  8
0
  6
CONTINUOUS
100
AcDbLine
 10
63.783752
 20
13.874187
 30
0.0
 11
63.623752
 21
13.874187
 31
0.0
  0
ARC
  5
CF7
100
AcDbEntity
  8
0
  6
CONTINUOUS
100
AcDbCircle
 10
65.326506
 20
12.943437
 30
0.0
 40
0.3
100
AcDbArc
 50
90.0
 51
180.0
  0
LINE
  5
CF8
100
AcDbEntity
  8
0
  6
CONTINUOUS
100
AcDbLine
 10
64.342578
 20
12.04464
 30
0.0
 11
65.136434
 21
12.04464
 31
0.0
  0
LINE
  5
CF9
100
AcDbEntity
  8
0
  6
CONTINUOUS
100
AcDbLine
 10
64.342578
 20
12.54464
 30
0.0
 11
65.136434
 21
12.54464
 31
0.0
  0
ARC
  5
CFA
100
AcDbEntity
  8
0
  6
CONTINUOUS
100
AcDbCircle
 10
65.023256
 20
12.02464
 30
0.0
 40
0.06
100
AcDbArc
 50
270.0
 51
0.0
  0
LINE
  5
CFB
100
AcDbEntity
  8
0
  6
CONTINUOUS
100
AcDbLine
 10
65.855261
 20
13.133509
 30
0.0
 11
66.355261
 21
13.133509
 31
0.0
  0
LINE
  5
CFC
100
AcDbEntity
  8
0
  6
CONTINUOUS
100
AcDbLine
 10
65.855261
 20
13.331973
 30
0.0
 11
66.355261
 21
13.331973
 31
0.0
  0
LINE
  5
CFD
100
AcDbEntity
  8
0
  6
CONTINUOUS
100
AcDbLine
 10
66.355261
 20
13.186687
 30
0.0
 11
66.375261
 21
13.186687
 31
0.0
  0
ARC
  5
CFE
100
AcDbEntity
  8
0
  6
CONTINUOUS
100
AcDbCircle
 10
66.375261
 20
13.246687
 30
0.0
 40
0.06
100
AcDbArc
 50
270.0
 51
0.0
  0
LINE
  5
CFF
100
AcDbEntity
  8
0
  6
CONTINUOUS
100
AcDbLine
 10
65.326506
 20
13.243437
 30
0.0
 11
65.695261
 21
13.243437
 31
0.0
  0
LINE
  5
D00
100
AcDbEntity
  8
0
  6
CONTINUOUS
100
AcDbLine
 10
65.695261
 20
13.186687
 30
0.0
 11
65.855261
 21
13.186687
 31
0.0
  0
LINE
  5
D01
100
AcDbEntity
  8
0
  6
CONTINUOUS
100
AcDbLine
 10
65.136434
 20
12.54464
 30
0.0
 11
65.136434
 21
12.04464
 31
0.0
  0
LINE
  5
D02
100
AcDbEntity
  8
0
  6
CONTINUOUS
100
AcDbLine
 10
64.395756
 20
12.70464
 30
0.0
 11
64.395756
 21
12.54464
 31
0.0
  0
LINE
  5
D03
100
AcDbEntity
  8
0
  6
CONTINUOUS
100
AcDbLine
 10
65.083256
 20
12.70464
 30
0.0
 11
65.083256
 21
12.54464
 31
0.0
  0
ARC
  5
D04
100
AcDbEntity
  8
0
  6
CONTINUOUS
100
AcDbCircle
 10
64.152506
 20
12.943437
 30
0.0
 40
0.3
100
AcDbArc
 50
0.0
 51
90.0
  0
LINE
  5
D05
100
AcDbEntity
  8
0
100
AcDbLine
 10
65.026506
 20
12.943437
 30
0.0
 11
64.452506
 21
12.943437
 31
0.0
  0
LINE
  5
D06
100
AcDbEntity
  8
0
  6
CONTINUOUS
100
AcDbLine
 10
64.452506
 20
12.943437
 30
0.0
 11
64.452506
 21
12.70464
 31
0.0
  0
LINE
  5
D07
100
AcDbEntity
  8
0
  6
CONTINUOUS
100
AcDbLine
 10
65.026506
 20
12.943437
 30
0.0
 11
65.026506
 21
12.70464
 31
0.0
  0
LINE
  5
D08
100
AcDbEntity
  8
0
  6
CONTINUOUS
100
AcDbLine
 10
64.395756
 20
12.70464
 30
0.0
 11
65.083256
 21
12.70464
 31
0.0
  0
LINE
  5
D09
100
AcDbEntity
  8
0
  6
CONTINUOUS
100
AcDbLine
 10
63.922549
 20
13.243437
 30
0.0
 11
64.152506
 21
13.243437
 31
0.0
  0
LINE
  5
D0A
100
AcDbEntity
  8
0
  6
CONTINUOUS
100
AcDbLine
 10
63.783752
 20
13.186687
 30
0.0
 11
63.623752
 21
13.186687
 31
0.0
  0
LINE
  5
D0B
100
AcDbEntity
  8
0
  6
CONTINUOUS
100
AcDbLine
 10
63.922549
 20
13.243437
 30
0.0
 11
63.783752
 21
13.243437
 31
0.0
  0
LINE
  5
D0C
100
AcDbEntity
  8
0
  6
CONTINUOUS
100
AcDbLine
 10
64.455756
 20
11.96464
 30
0.0
 11
65.023256
 21
11.96464
 31
0.0
  0
ARC
  5
D0D
100
AcDbEntity
  8
0
  6
CONTINUOUS
100
AcDbCircle
 10
64.455756
 20
12.02464
 30
0.0
 40
0.06
100
AcDbArc
 50
180.0
 51
270.0
  0
LINE
  5
D0E
100
AcDbEntity
  8
0
  6
CONTINUOUS
100
AcDbLine
 10
64.395756
 20
12.04464
 30
0.0
 11
64.395756
 21
12.02464
 31
0.0
  0
LINE
  5
D0F
100
AcDbEntity
  8
0
  6
CONTINUOUS
100
AcDbLine
 10
64.342578
 20
12.54464
 30
0.0
 11
64.342578
 21
12.04464
 31
0.0
  0
LINE
  5
D10
100
AcDbEntity
  8
0
  6
CONTINUOUS
100
AcDbLine
 10
65.083256
 20
12.04464
 30
0.0
 11
65.083256
 21
12.02464
 31
0.0
  0
LINE
  5
D11
100
AcDbEntity
  8
0
  6
CONTINUOUS
100
AcDbLine
 10
64.541042
 20
12.54464
 30
0.0
 11
64.541042
 21
12.04464
 31
0.0
  0
LINE
  5
D12
100
AcDbEntity
  8
0
  6
CONTINUOUS
100
AcDbLine
 10
64.93797
 20
12.54464
 30
0.0
 11
64.93797
 21
12.04464
 31
0.0
  0
LINE
  5
D13
100
AcDbEntity
  8
0
  6
CONTINUOUS
100
AcDbLine
 10
63.043752
 20
13.814187
 30
0.0
 11
63.043752
 21
13.246687
 31
0.0
  0
LINE
  5
D14
100
AcDbEntity
  8
0
  6
CONTINUOUS
100
AcDbLine
 10
63.123752
 20
13.927366
 30
0.0
 11
63.123752
 21
13.133509
 31
0.0
  0
LINE
  5
D15
100
AcDbEntity
  8
0
  6
CONTINUOUS
100
AcDbLine
 10
63.123752
 20
13.874187
 30
0.0
 11
63.103752
 21
13.874187
 31
0.0
  0
ARC
  5
D16
100
AcDbEntity
  8
0
  6
CONTINUOUS
100
AcDbCircle
 10
63.103752
 20
13.814187
 30
0.0
 40
0.06
100
AcDbArc
 50
90.0
 51
180.0
  0
LINE
  5
D17
100
AcDbEntity
  8
0
  6
CONTINUOUS
100
AcDbLine
 10
63.123752
 20
13.186687
 30
0.0
 11
63.103752
 21
13.186687
 31
0.0
  0
ARC
  5
D18
100
AcDbEntity
  8
0
  6
CONTINUOUS
100
AcDbCircle
 10
63.103752
 20
13.246687
 30
0.0
 40
0.06
100
AcDbArc
 50
180.0
 51
270.0
  0
LINE
  5
D19
100
AcDbEntity
  8
0
100
AcDbLine
 10
63.043752
 20
13.717437
 30
0.0
 11
63.043752
 21
13.343437
 31
0.0
  0
LINE
  5
D1B
100
AcDbEntity
  8
0
100
AcDbLine
 10
64.552506
 20
11.96464
 30
0.0
 11
64.552506
 21
9.68947
 31
0.0
  0
ARC
  5
D1D
100
AcDbEntity
  8
0
100
AcDbCircle
 10
63.052506
 20
9.68947
 30
0.0
 40
1.5
100
AcDbArc
 50
270.0
 51
0.0
  0
LINE
  5
D1E
100
AcDbEntity
  8
0
100
AcDbLine
 10
64.927506
 20
11.96464
 30
0.0
 11
64.927506
 21
9.68947
 31
0.0
  0
ARC
  5
D1F
100
AcDbEntity
  8
0
100
AcDbCircle
 10
63.052506
 20
9.68947
 30
0.0
 40
1.875
100
AcDbArc
 50
270.0
 51
0.0
  0
LINE
  5
D20
100
AcDbEntity
  8
0
100
AcDbLine
 10
63.052506
 20
7.81447
 30
0.0
 11
53.226683
 21
7.81447
 31
0.0
  0
LINE
  5
D24
100
AcDbEntity
  8
0
100
AcDbLine
 10
66.435261
 20
13.717437
 30
0.0
 11
78.32536
 21
13.717437
 31
0.0
  0
LINE
  5
D25
100
AcDbEntity
  8
0
100
AcDbLine
 10
66.435261
 20
13.343437
 30
0.0
 11
78.32536
 21
13.343437
 31
0.0
  0
LINE
  5
D26
100
AcDbEntity
  8
0
  6
CONTINUOUS
100
AcDbLine
 10
51.665454
 20
7.44047
 30
0.0
 11
51.665454
 21
11.834683
 31
0.0
  0
LEADER
  5
D27
100
AcDbEntity
  8
0
100
AcDbLeader
  3
STANDARD
 40
0.18
 41
0.18
 76
     2
 10
135.104168
 20
14.04337
 30
0.0
 10
132.010801
 20
14.04337
 30
0.0
 77
   256
211
1.0
221
0.0000000000000001
231
0.0
210
0.0
220
0.0
230
-1.0
213
0.0
223
-0.09
233
0.0
1001
ACAD
1000
DSTYLE
1002
{
1070
     5
1000

1070
    41
1040
0.5
1070
   342
1005
0
1002
}
  0
LEADER
  5
D28
100
AcDbEntity
  8
0
100
AcDbLeader
  3
STANDARD
 40
0.18
 41
0.18
 76
     2
 10
59.827161
 20
8.805037
 30
0.0
 10
56.733793
 20
8.805037
 30
0.0
 77
   256
211
1.0
221
0.0000000000000001
231
0.0
210
0.0
220
0.0
230
-1.0
213
0.0
223
-0.09
233
0.0
1001
ACAD
1000
DSTYLE
1002
{
1070
     5
1000

1070
    41
1040
0.5
1070
   342
1005
0
1002
}
  0
LEADER
  5
D29
100
AcDbEntity
  8
0
100
AcDbLeader
  3
STANDARD
 40
0.18
 41
0.18
 76
     2
 10
74.909629
 20
14.415957
 30
0.0
 10
71.816262
 20
14.415957
 30
0.0
 77
   256
211
1.0
221
0.0000000000000001
231
0.0
210
0.0
220
0.0
230
-1.0
213
0.0
223
-0.09
233
0.0
1001
ACAD
1000
DSTYLE
1002
{
1070
     5
1000

1070
    41
1040
0.5
1070
   342
1005
0
1002
}
  0
LINE
  5
D2A
100
AcDbEntity
  8
0
  6
CONTINUOUS
100
AcDbLine
 10
51.665454
 20
-1.727571
 30
0.0
 11
51.665454
 21
-6.121784
 31
0.0
  0
LINE
  5
D2B
100
AcDbEntity
  8
0
100
AcDbLine
 10
64.927506
 20
-6.251741
 30
0.0
 11
64.927506
 21
-3.976571
 31
0.0
  0
LINE
  5
D2C
100
AcDbEntity
  8
0
100
AcDbLine
 10
64.552506
 20
-6.251741
 30
0.0
 11
64.552506
 21
-3.976571
 31
0.0
  0
LINE
  5
D2D
100
AcDbEntity
  8
0
100
AcDbLine
 10
63.052506
 20
-2.101571
 30
0.0
 11
53.226683
 21
-2.101571
 31
0.0
  0
LINE
  5
D2E
100
AcDbEntity
  8
0
100
AcDbLine
 10
63.052506
 20
-2.476571
 30
0.0
 11
53.226683
 21
-2.476571
 31
0.0
  0
ARC
  5
D2F
100
AcDbEntity
  8
0
100
AcDbCircle
 10
53.165454
 20
-0.602571
 30
0.0
 40
1.875
100
AcDbArc
 50
181.656855
 51
271.871356
  0
ARC
  5
D30
100
AcDbEntity
  8
0
100
AcDbCircle
 10
53.165454
 20
-0.602571
 30
0.0
 40
1.5
100
AcDbArc
 50
180.0
 51
270.0
  0
ARC
  5
D31
100
AcDbEntity
  8
0
100
AcDbCircle
 10
53.165454
 20
-0.602571
 30
0.0
 40
1.875
100
AcDbArc
 50
180.0
 51
181.27346
  0
LEADER
  5
D32
100
AcDbEntity
  8
0
100
AcDbLeader
  3
STANDARD
 40
0.18
 41
0.18
 76
     2
 10
59.827161
 20
-3.092138
 30
0.0
 10
56.733793
 20
-3.092138
 30
0.0
 77
   256
211
1.0
221
-0.0000000000000001
231
0.0
213
0.0
223
0.09
233
0.0
1001
ACAD
1000
DSTYLE
1002
{
1070
     5
1000

1070
    41
1040
0.5
1070
   342
1005
0
1002
}
  0
ARC
  5
D33
100
AcDbEntity
  8
0
100
AcDbCircle
 10
63.052506
 20
-3.976571
 30
0.0
 40
1.875
100
AcDbArc
 50
0.0
 51
90.0
  0
ARC
  5
D34
100
AcDbEntity
  8
0
100
AcDbCircle
 10
63.052506
 20
-3.976571
 30
0.0
 40
1.5
100
AcDbArc
 50
0.0
 51
90.0
  0
LINE
  5
D35
100
AcDbEntity
  8
0
100
AcDbLine
 10
66.435261
 20
-7.630538
 30
0.0
 11
78.32536
 21
-7.630538
 31
0.0
  0
LINE
  5
D36
100
AcDbEntity
  8
0
100
AcDbLine
 10
66.435261
 20
-8.004538
 30
0.0
 11
78.32536
 21
-8.004538
 31
0.0
  0
LINE
  5
D37
100
AcDbEntity
  8
0
  6
CONTINUOUS
100
AcDbLine
 10
68.762137
 20
-10.942217
 30
0.0
 11
68.097137
 21
-10.942217
 31
0.0
  0
LINE
  5
D38
100
AcDbEntity
  8
0
  6
CONTINUOUS
100
AcDbLine
 10
68.762137
 20
-11.470132
 30
0.0
 11
68.097137
 21
-11.470132
 31
0.0
  0
LINE
  5
D39
100
AcDbEntity
  8
0
  6
CONTINUOUS
100
AcDbLine
 10
68.762137
 20
-11.734089
 30
0.0
 11
68.097137
 21
-11.734089
 31
0.0
  0
LINE
  5
D3A
100
AcDbEntity
  8
0
  6
CONTINUOUS
100
AcDbLine
 10
68.762137
 20
-10.67826
 30
0.0
 11
68.097137
 21
-10.67826
 31
0.0
  0
LINE
  5
D3B
100
AcDbEntity
  8
0
100
AcDbLine
 10
53.043752
 20
-7.630538
 30
0.0
 11
55.644468
 21
-7.630538
 31
0.0
  0
LINE
  5
D3C
100
AcDbEntity
  8
0
100
AcDbLine
 10
53.043752
 20
-8.004538
 30
0.0
 11
55.644468
 21
-8.004538
 31
0.0
  0
LINE
  5
D3D
100
AcDbEntity
  8
0
  6
CONTINUOUS
100
AcDbLine
 10
58.842229
 20
-11.013293
 30
0.0
 11
53.165454
 21
-11.013293
 31
0.0
  0
LINE
  5
D3E
100
AcDbEntity
  8
0
  6
CONTINUOUS
100
AcDbLine
 10
58.842229
 20
-11.388293
 30
0.0
 11
55.342229
 21
-11.388293
 31
0.0
  0
LINE
  5
D3F
100
AcDbEntity
  8
0
  6
CONTINUOUS
100
AcDbLine
 10
51.081026
 20
-8.933293
 30
0.0
 11
51.081026
 21
-9.433293
 31
0.0
  0
LINE
  5
D40
100
AcDbEntity
  8
0
  6
CONTINUOUS
100
AcDbLine
 10
51.27949
 20
-8.933293
 30
0.0
 11
51.27949
 21
-9.433293
 31
0.0
  0
LINE
  5
D41
100
AcDbEntity
  8
0
  6
CONTINUOUS
100
AcDbLine
 10
51.676419
 20
-8.933293
 30
0.0
 11
51.676419
 21
-9.433293
 31
0.0
  0
LINE
  5
D42
100
AcDbEntity
  8
0
  6
CONTINUOUS
100
AcDbLine
 10
51.874883
 20
-8.933293
 30
0.0
 11
51.874883
 21
-9.433293
 31
0.0
  0
LINE
  5
D43
100
AcDbEntity
  8
0
  6
CONTINUOUS
100
AcDbLine
 10
52.064954
 20
-8.104538
 30
0.0
 11
52.303752
 21
-8.104538
 31
0.0
  0
LINE
  5
D44
100
AcDbEntity
  8
0
  6
CONTINUOUS
100
AcDbLine
 10
52.064954
 20
-7.530538
 30
0.0
 11
52.303752
 21
-7.530538
 31
0.0
  0
LINE
  5
D45
100
AcDbEntity
  8
0
  6
CONTINUOUS
100
AcDbLine
 10
51.134204
 20
-6.861784
 30
0.0
 11
51.134204
 21
-6.701784
 31
0.0
  0
LINE
  5
D46
100
AcDbEntity
  8
0
  6
CONTINUOUS
100
AcDbLine
 10
51.821704
 20
-6.861784
 30
0.0
 11
51.821704
 21
-6.701784
 31
0.0
  0
LINE
  5
D47
100
AcDbEntity
  8
0
  6
CONTINUOUS
100
AcDbLine
 10
51.194204
 20
-6.121784
 30
0.0
 11
51.761704
 21
-6.121784
 31
0.0
  0
LINE
  5
D48
100
AcDbEntity
  8
0
  6
CONTINUOUS
100
AcDbLine
 10
51.081026
 20
-6.201784
 30
0.0
 11
51.874883
 21
-6.201784
 31
0.0
  0
LINE
  5
D49
100
AcDbEntity
  8
0
  6
CONTINUOUS
100
AcDbLine
 10
51.081026
 20
-6.701784
 30
0.0
 11
51.874883
 21
-6.701784
 31
0.0
  0
LINE
  5
D4A
100
AcDbEntity
  8
0
  6
CONTINUOUS
100
AcDbLine
 10
51.081026
 20
-6.701784
 30
0.0
 11
51.081026
 21
-6.201784
 31
0.0
  0
LINE
  5
D4B
100
AcDbEntity
  8
0
  6
CONTINUOUS
100
AcDbLine
 10
51.27949
 20
-6.701784
 30
0.0
 11
51.27949
 21
-6.201784
 31
0.0
  0
LINE
  5
D4C
100
AcDbEntity
  8
0
  6
CONTINUOUS
100
AcDbLine
 10
51.134204
 20
-6.201784
 30
0.0
 11
51.134204
 21
-6.181784
 31
0.0
  0
ARC
  5
D4D
100
AcDbEntity
  8
0
  6
CONTINUOUS
100
AcDbCircle
 10
51.194204
 20
-6.181784
 30
0.0
 40
0.06
100
AcDbArc
 50
90.0
 51
180.0
  0
LINE
  5
D4E
100
AcDbEntity
  8
0
  6
CONTINUOUS
100
AcDbLine
 10
51.676419
 20
-6.701784
 30
0.0
 11
51.676419
 21
-6.201784
 31
0.0
  0
LINE
  5
D4F
100
AcDbEntity
  8
0
  6
CONTINUOUS
100
AcDbLine
 10
51.874883
 20
-6.701784
 30
0.0
 11
51.874883
 21
-6.201784
 31
0.0
  0
ARC
  5
D50
100
AcDbEntity
  8
0
  6
CONTINUOUS
100
AcDbCircle
 10
51.761704
 20
-6.181784
 30
0.0
 40
0.06
100
AcDbArc
 50
0.0
 51
90.0
  0
LINE
  5
D51
100
AcDbEntity
  8
0
  6
CONTINUOUS
100
AcDbLine
 10
51.821704
 20
-6.201784
 30
0.0
 11
51.821704
 21
-6.181784
 31
0.0
  0
LINE
  5
D52
100
AcDbEntity
  8
0
  6
CONTINUOUS
100
AcDbLine
 10
51.190954
 20
-8.634495
 30
0.0
 11
51.190954
 21
-6.861784
 31
0.0
  0
LWPOLYLINE
  5
D53
100
AcDbEntity
  8
0
100
AcDbPolyline
 90
        4
 70
     1
 43
0.0
 10
51.659468
 20
-7.211922
 10
51.659468
 20
-8.409398
 10
51.302839
 20
-8.409398
 10
51.302839
 20
-7.211922
  0
LINE
  5
D54
100
AcDbEntity
  8
0
100
AcDbLine
 10
52.064954
 20
-7.530538
 30
0.0
 11
52.064954
 21
-8.104538
 31
0.0
  0
LINE
  5
D55
100
AcDbEntity
  8
0
  6
CONTINUOUS
100
AcDbLine
 10
51.134204
 20
-6.861784
 30
0.0
 11
51.821704
 21
-6.861784
 31
0.0
  0
ARC
  5
D56
100
AcDbEntity
  8
0
  6
CONTINUOUS
100
AcDbCircle
 10
52.064954
 20
-7.230538
 30
0.0
 40
0.3
100
AcDbArc
 50
180.0
 51
270.0
  0
LINE
  5
D57
100
AcDbEntity
  8
0
  6
CONTINUOUS
100
AcDbLine
 10
51.764954
 20
-7.230538
 30
0.0
 11
51.764954
 21
-6.861784
 31
0.0
  0
LINE
  5
D58
100
AcDbEntity
  8
0
  6
CONTINUOUS
100
AcDbLine
 10
51.134204
 20
-8.773293
 30
0.0
 11
51.821704
 21
-8.773293
 31
0.0
  0
LINE
  5
D59
100
AcDbEntity
  8
0
  6
CONTINUOUS
100
AcDbLine
 10
51.081026
 20
-8.933293
 30
0.0
 11
51.874883
 21
-8.933293
 31
0.0
  0
LINE
  5
D5A
100
AcDbEntity
  8
0
  6
CONTINUOUS
100
AcDbLine
 10
51.190954
 20
-8.634495
 30
0.0
 11
51.190954
 21
-8.773293
 31
0.0
  0
LINE
  5
D5B
100
AcDbEntity
  8
0
  6
CONTINUOUS
100
AcDbLine
 10
51.134204
 20
-8.773293
 30
0.0
 11
51.134204
 21
-8.933293
 31
0.0
  0
LINE
  5
D5C
100
AcDbEntity
  8
0
  6
CONTINUOUS
100
AcDbLine
 10
51.764954
 20
-8.634495
 30
0.0
 11
51.764954
 21
-8.404538
 31
0.0
  0
ARC
  5
D5D
100
AcDbEntity
  8
0
  6
CONTINUOUS
100
AcDbCircle
 10
52.064954
 20
-8.404538
 30
0.0
 40
0.3
100
AcDbArc
 50
90.0
 51
180.0
  0
LINE
  5
D5E
100
AcDbEntity
  8
0
  6
CONTINUOUS
100
AcDbLine
 10
51.764954
 20
-8.634495
 30
0.0
 11
51.764954
 21
-8.773293
 31
0.0
  0
LINE
  5
D5F
100
AcDbEntity
  8
0
  6
CONTINUOUS
100
AcDbLine
 10
51.821704
 20
-8.773293
 30
0.0
 11
51.821704
 21
-8.933293
 31
0.0
  0
LINE
  5
D60
100
AcDbEntity
  8
0
  6
CONTINUOUS
100
AcDbLine
 10
52.463752
 20
-8.214466
 30
0.0
 11
52.463752
 21
-7.42061
 31
0.0
  0
LINE
  5
D61
100
AcDbEntity
  8
0
  6
CONTINUOUS
100
AcDbLine
 10
52.303752
 20
-8.161288
 30
0.0
 11
52.303752
 21
-7.473788
 31
0.0
  0
LINE
  5
D62
100
AcDbEntity
  8
0
  6
CONTINUOUS
100
AcDbLine
 10
52.963752
 20
-8.214466
 30
0.0
 11
52.963752
 21
-7.42061
 31
0.0
  0
LINE
  5
D63
100
AcDbEntity
  8
0
  6
CONTINUOUS
100
AcDbLine
 10
53.043752
 20
-8.101288
 30
0.0
 11
53.043752
 21
-7.533788
 31
0.0
  0
LINE
  5
D64
100
AcDbEntity
  8
0
  6
CONTINUOUS
100
AcDbLine
 10
52.463752
 20
-7.619074
 30
0.0
 11
52.963752
 21
-7.619074
 31
0.0
  0
LINE
  5
D65
100
AcDbEntity
  8
0
  6
CONTINUOUS
100
AcDbLine
 10
52.463752
 20
-7.42061
 30
0.0
 11
52.963752
 21
-7.42061
 31
0.0
  0
LINE
  5
D66
100
AcDbEntity
  8
0
  6
CONTINUOUS
100
AcDbLine
 10
52.303752
 20
-7.473788
 30
0.0
 11
52.463752
 21
-7.473788
 31
0.0
  0
ARC
  5
D67
100
AcDbEntity
  8
0
  6
CONTINUOUS
100
AcDbCircle
 10
52.983752
 20
-7.533788
 30
0.0
 40
0.06
100
AcDbArc
 50
0.0
 51
90.0
  0
LINE
  5
D68
100
AcDbEntity
  8
0
  6
CONTINUOUS
100
AcDbLine
 10
52.963752
 20
-7.473788
 30
0.0
 11
52.983752
 21
-7.473788
 31
0.0
  0
LINE
  5
D69
100
AcDbEntity
  8
0
  6
CONTINUOUS
100
AcDbLine
 10
52.463752
 20
-8.214466
 30
0.0
 11
52.963752
 21
-8.214466
 31
0.0
  0
LINE
  5
D6A
100
AcDbEntity
  8
0
  6
CONTINUOUS
100
AcDbLine
 10
52.463752
 20
-8.016002
 30
0.0
 11
52.963752
 21
-8.016002
 31
0.0
  0
LINE
  5
D6B
100
AcDbEntity
  8
0
  6
CONTINUOUS
100
AcDbLine
 10
52.303752
 20
-8.161288
 30
0.0
 11
52.463752
 21
-8.161288
 31
0.0
  0
ARC
  5
D6C
100
AcDbEntity
  8
0
  6
CONTINUOUS
100
AcDbCircle
 10
52.983752
 20
-8.101288
 30
0.0
 40
0.06
100
AcDbArc
 50
270.0
 51
0.0
  0
LINE
  5
D6D
100
AcDbEntity
  8
0
  6
CONTINUOUS
100
AcDbLine
 10
52.963752
 20
-8.161288
 30
0.0
 11
52.983752
 21
-8.161288
 31
0.0
  0
ARC
  5
D6E
100
AcDbEntity
  8
0
  6
CONTINUOUS
100
AcDbCircle
 10
53.165454
 20
-9.513293
 30
0.0
 40
1.875
100
AcDbArc
 50
180.0
 51
270.0
  0
ARC
  5
D6F
100
AcDbEntity
  8
0
  6
CONTINUOUS
100
AcDbCircle
 10
53.165454
 20
-9.513293
 30
0.0
 40
1.5
100
AcDbArc
 50
180.0
 51
270.0
  0
LINE
  5
D70
100
AcDbEntity
  8
0
  6
CONTINUOUS
100
AcDbLine
 10
51.194204
 20
-9.513293
 30
0.0
 11
51.761704
 21
-9.513293
 31
0.0
  0
LINE
  5
D71
100
AcDbEntity
  8
0
  6
CONTINUOUS
100
AcDbLine
 10
51.081026
 20
-9.433293
 30
0.0
 11
51.874883
 21
-9.433293
 31
0.0
  0
LINE
  5
D72
100
AcDbEntity
  8
0
100
AcDbLine
 10
51.290454
 20
-9.513293
 30
0.0
 11
51.665454
 21
-9.513293
 31
0.0
  0
LINE
  5
D73
100
AcDbEntity
  8
0
  6
CONTINUOUS
100
AcDbLine
 10
51.134204
 20
-9.433293
 30
0.0
 11
51.134204
 21
-9.453293
 31
0.0
  0
ARC
  5
D74
100
AcDbEntity
  8
0
  6
CONTINUOUS
100
AcDbCircle
 10
51.194204
 20
-9.453293
 30
0.0
 40
0.06
100
AcDbArc
 50
180.0
 51
270.0
  0
ARC
  5
D75
100
AcDbEntity
  8
0
  6
CONTINUOUS
100
AcDbCircle
 10
51.761704
 20
-9.453293
 30
0.0
 40
0.06
100
AcDbArc
 50
270.0
 51
0.0
  0
LINE
  5
D76
100
AcDbEntity
  8
0
  6
CONTINUOUS
100
AcDbLine
 10
51.821704
 20
-9.433293
 30
0.0
 11
51.821704
 21
-9.453293
 31
0.0
  0
LINE
  5
D77
100
AcDbEntity
  8
0
100
AcDbLine
 10
55.342229
 20
-11.388293
 30
0.0
 11
53.165454
 21
-11.388293
 31
0.0
  0
LINE
  5
D78
100
AcDbEntity
  8
0
100
AcDbLine
 10
59.035977
 20
-7.630538
 30
0.0
 11
63.043752
 21
-7.630538
 31
0.0
  0
LINE
  5
D79
100
AcDbEntity
  8
0
100
AcDbLine
 10
59.035977
 20
-8.004538
 30
0.0
 11
63.043752
 21
-8.004538
 31
0.0
  0
LINE
  5
D7A
100
AcDbEntity
  8
0
  6
CONTINUOUS
 62
     7
100
AcDbLine
 10
61.638027
 20
-12.387828
 30
0.0
 11
62.203027
 21
-12.387828
 31
0.0
  0
LINE
  5
D7B
100
AcDbEntity
  8
0
  6
CONTINUOUS
 62
     7
100
AcDbLine
 10
62.203027
 20
-10.017828
 30
0.0
 11
61.638027
 21
-10.017828
 31
0.0
  0
LINE
  5
D7C
100
AcDbEntity
  8
0
  6
CONTINUOUS
100
AcDbLine
 10
58.455977
 20
-8.016002
 30
0.0
 11
58.955977
 21
-8.016002
 31
0.0
  0
LINE
  5
D7D
100
AcDbEntity
  8
0
  6
CONTINUOUS
100
AcDbLine
 10
58.455977
 20
-8.214466
 30
0.0
 11
58.955977
 21
-8.214466
 31
0.0
  0
LINE
  5
D7E
100
AcDbEntity
  8
0
  6
CONTINUOUS
100
AcDbLine
 10
58.455977
 20
-7.619074
 30
0.0
 11
58.955977
 21
-7.619074
 31
0.0
  0
LINE
  5
D7F
100
AcDbEntity
  8
0
  6
CONTINUOUS
100
AcDbLine
 10
58.455977
 20
-7.42061
 30
0.0
 11
58.955977
 21
-7.42061
 31
0.0
  0
LINE
  5
D80
100
AcDbEntity
  8
0
100
AcDbLine
 10
56.710265
 20
-8.193538
 30
0.0
 11
57.97018
 21
-8.193538
 31
0.0
  0
LINE
  5
D81
100
AcDbEntity
  8
0
100
AcDbLine
 10
56.710265
 20
-7.441538
 30
0.0
 11
57.97018
 21
-7.441538
 31
0.0
  0
LINE
  5
D83
100
AcDbEntity
  8
0
100
AcDbLine
 10
56.523265
 20
-8.104538
 30
0.0
 11
56.523265
 21
-7.380038
 31
0.0
  0
LINE
  5
D84
100
AcDbEntity
  8
0
100
AcDbLine
 10
56.710265
 20
-8.255038
 30
0.0
 11
56.710265
 21
-7.380038
 31
0.0
  0
LINE
  5
D85
100
AcDbEntity
  8
0
  6
CONTINUOUS
100
AcDbLine
 10
56.384468
 20
-7.473788
 30
0.0
 11
56.384468
 21
-8.161288
 31
0.0
  0
LINE
  5
D86
100
AcDbEntity
  8
0
  6
CONTINUOUS
100
AcDbLine
 10
56.224468
 20
-7.42061
 30
0.0
 11
56.224468
 21
-8.214466
 31
0.0
  0
LINE
  5
D87
100
AcDbEntity
  8
0
  6
CONTINUOUS
100
AcDbLine
 10
55.724468
 20
-7.42061
 30
0.0
 11
55.724468
 21
-8.214466
 31
0.0
  0
LINE
  5
D88
100
AcDbEntity
  8
0
  6
CONTINUOUS
100
AcDbLine
 10
55.644468
 20
-7.533788
 30
0.0
 11
55.644468
 21
-8.101288
 31
0.0
  0
LINE
  5
D89
100
AcDbEntity
  8
0
100
AcDbLine
 10
55.644468
 20
-8.004538
 30
0.0
 11
55.644468
 21
-7.630538
 31
0.0
  0
LINE
  5
D8A
100
AcDbEntity
  8
0
  6
CONTINUOUS
100
AcDbLine
 10
56.384468
 20
-7.473788
 30
0.0
 11
56.224468
 21
-7.473788
 31
0.0
  0
ARC
  5
D8B
100
AcDbEntity
  8
0
  6
CONTINUOUS
100
AcDbCircle
 10
55.704468
 20
-7.533788
 30
0.0
 40
0.06
100
AcDbArc
 50
90.0
 51
180.0
  0
LINE
  5
D8C
100
AcDbEntity
  8
0
  6
CONTINUOUS
100
AcDbLine
 10
55.724468
 20
-7.473788
 30
0.0
 11
55.704468
 21
-7.473788
 31
0.0
  0
LINE
  5
D8D
100
AcDbEntity
  8
0
  6
CONTINUOUS
100
AcDbLine
 10
56.224468
 20
-7.619074
 30
0.0
 11
55.724468
 21
-7.619074
 31
0.0
  0
LINE
  5
D8E
100
AcDbEntity
  8
0
  6
CONTINUOUS
100
AcDbLine
 10
56.224468
 20
-7.42061
 30
0.0
 11
55.724468
 21
-7.42061
 31
0.0
  0
LINE
  5
D8F
100
AcDbEntity
  8
0
100
AcDbLine
 10
56.523265
 20
-7.380038
 30
0.0
 11
56.710265
 21
-7.380038
 31
0.0
  0
LINE
  5
D90
100
AcDbEntity
  8
0
100
AcDbLine
 10
56.523265
 20
-7.480538
 30
0.0
 11
56.523265
 21
-7.530538
 31
0.0
  0
LINE
  5
D91
100
AcDbEntity
  8
0
100
AcDbLine
 10
56.523265
 20
-7.817538
 30
0.0
 11
56.710265
 21
-7.817538
 31
0.0
  0
LINE
  5
D92
100
AcDbEntity
  8
0
  6
CONTINUOUS
100
AcDbLine
 10
56.523265
 20
-7.530538
 30
0.0
 11
56.384468
 21
-7.530538
 31
0.0
  0
LINE
  5
D93
100
AcDbEntity
  8
0
  6
CONTINUOUS
100
AcDbLine
 10
56.384468
 20
-8.161288
 30
0.0
 11
56.224468
 21
-8.161288
 31
0.0
  0
ARC
  5
D94
100
AcDbEntity
  8
0
  6
CONTINUOUS
100
AcDbCircle
 10
55.704468
 20
-8.101288
 30
0.0
 40
0.06
100
AcDbArc
 50
180.0
 51
270.0
  0
LINE
  5
D95
100
AcDbEntity
  8
0
  6
CONTINUOUS
100
AcDbLine
 10
55.724468
 20
-8.161288
 30
0.0
 11
55.704468
 21
-8.161288
 31
0.0
  0
LINE
  5
D96
100
AcDbEntity
  8
0
  6
CONTINUOUS
100
AcDbLine
 10
56.224468
 20
-8.016002
 30
0.0
 11
55.724468
 21
-8.016002
 31
0.0
  0
LINE
  5
D97
100
AcDbEntity
  8
0
  6
CONTINUOUS
100
AcDbLine
 10
56.224468
 20
-8.214466
 30
0.0
 11
55.724468
 21
-8.214466
 31
0.0
  0
LINE
  5
D98
100
AcDbEntity
  8
0
100
AcDbLine
 10
56.523265
 20
-8.255038
 30
0.0
 11
56.710265
 21
-8.255038
 31
0.0
  0
LINE
  5
D99
100
AcDbEntity
  8
0
100
AcDbLine
 10
56.523265
 20
-8.104538
 30
0.0
 11
56.523265
 21
-8.255038
 31
0.0
  0
LINE
  5
D9A
100
AcDbEntity
  8
0
  6
CONTINUOUS
100
AcDbLine
 10
56.523265
 20
-8.104538
 30
0.0
 11
56.384468
 21
-8.104538
 31
0.0
  0
LINE
  5
D9B
100
AcDbEntity
  8
0
100
AcDbLine
 10
58.15718
 20
-7.380038
 30
0.0
 11
58.15718
 21
-8.255038
 31
0.0
  0
LINE
  5
D9C
100
AcDbEntity
  8
0
  6
CONTINUOUS
100
AcDbLine
 10
58.295977
 20
-7.473788
 30
0.0
 11
58.295977
 21
-8.161288
 31
0.0
  0
LINE
  5
D9D
100
AcDbEntity
  8
0
  6
CONTINUOUS
100
AcDbLine
 10
58.455977
 20
-7.42061
 30
0.0
 11
58.455977
 21
-8.214466
 31
0.0
  0
LINE
  5
D9E
100
AcDbEntity
  8
0
100
AcDbLine
 10
57.97018
 20
-7.380038
 30
0.0
 11
57.97018
 21
-8.255038
 31
0.0
  0
LINE
  5
D9F
100
AcDbEntity
  8
0
  6
CONTINUOUS
100
AcDbLine
 10
58.295977
 20
-7.473788
 30
0.0
 11
58.455977
 21
-7.473788
 31
0.0
  0
LINE
  5
DA0
100
AcDbEntity
  8
0
100
AcDbLine
 10
58.15718
 20
-7.530538
 30
0.0
 11
58.15718
 21
-7.480538
 31
0.0
  0
LINE
  5
DA1
100
AcDbEntity
  8
0
  6
CONTINUOUS
100
AcDbLine
 10
58.15718
 20
-7.530538
 30
0.0
 11
58.295977
 21
-7.530538
 31
0.0
  0
LINE
  5
DA2
100
AcDbEntity
  8
0
100
AcDbLine
 10
57.97018
 20
-7.380038
 30
0.0
 11
58.15718
 21
-7.380038
 31
0.0
  0
LINE
  5
DA3
100
AcDbEntity
  8
0
100
AcDbLine
 10
57.97018
 20
-7.817538
 30
0.0
 11
58.15718
 21
-7.817538
 31
0.0
  0
LINE
  5
DA5
100
AcDbEntity
  8
0
100
AcDbLine
 10
58.15718
 20
-8.104538
 30
0.0
 11
58.15718
 21
-8.154538
 31
0.0
  0
LINE
  5
DA6
100
AcDbEntity
  8
0
  6
CONTINUOUS
100
AcDbLine
 10
58.15718
 20
-8.104538
 30
0.0
 11
58.295977
 21
-8.104538
 31
0.0
  0
LINE
  5
DA7
100
AcDbEntity
  8
0
  6
CONTINUOUS
100
AcDbLine
 10
58.295977
 20
-8.161288
 30
0.0
 11
58.455977
 21
-8.161288
 31
0.0
  0
LINE
  5
DA8
100
AcDbEntity
  8
0
100
AcDbLine
 10
57.97018
 20
-8.255038
 30
0.0
 11
58.15718
 21
-8.255038
 31
0.0
  0
LINE
  5
DA9
100
AcDbEntity
  8
0
  6
CONTINUOUS
100
AcDbLine
 10
58.955977
 20
-7.42061
 30
0.0
 11
58.955977
 21
-8.214466
 31
0.0
  0
LINE
  5
DAA
100
AcDbEntity
  8
0
  6
CONTINUOUS
100
AcDbLine
 10
59.035977
 20
-7.533788
 30
0.0
 11
59.035977
 21
-8.101288
 31
0.0
  0
LINE
  5
DAB
100
AcDbEntity
  8
0
  6
CONTINUOUS
100
AcDbLine
 10
58.955977
 20
-7.473788
 30
0.0
 11
58.975977
 21
-7.473788
 31
0.0
  0
ARC
  5
DAC
100
AcDbEntity
  8
0
  6
CONTINUOUS
100
AcDbCircle
 10
58.975977
 20
-7.533788
 30
0.0
 40
0.06
100
AcDbArc
 50
0.0
 51
90.0
  0
ARC
  5
DAD
100
AcDbEntity
  8
0
  6
CONTINUOUS
100
AcDbCircle
 10
58.975977
 20
-8.101288
 30
0.0
 40
0.06
100
AcDbArc
 50
270.0
 51
0.0
  0
LINE
  5
DAE
100
AcDbEntity
  8
0
  6
CONTINUOUS
100
AcDbLine
 10
58.955977
 20
-8.161288
 30
0.0
 11
58.975977
 21
-8.161288
 31
0.0
  0
LINE
  5
DAF
100
AcDbEntity
  8
0
100
AcDbLine
 10
59.848027
 20
-11.591344
 30
0.0
 11
59.848027
 21
-10.814313
 31
0.0
  0
LINE
  5
DB0
100
AcDbEntity
  8
0
100
AcDbLine
 10
59.848027
 20
-10.804364
 30
0.0
 11
59.848027
 21
-11.601293
 31
0.0
  0
LINE
  5
DB1
100
AcDbEntity
  8
0
100
AcDbLine
 10
59.661027
 20
-11.014293
 30
0.0
 11
59.661027
 21
-11.388293
 31
0.0
  0
LINE
  5
DB2
100
AcDbEntity
  8
0
100
AcDbLine
 10
59.661027
 20
-10.804364
 30
0.0
 11
59.661027
 21
-11.601293
 31
0.0
  0
LINE
  5
DB3
100
AcDbEntity
  8
0
  6
CONTINUOUS
100
AcDbLine
 10
59.582229
 20
-10.857543
 30
0.0
 11
59.582229
 21
-11.545043
 31
0.0
  0
LINE
  5
DB4
100
AcDbEntity
  8
0
  6
CONTINUOUS
100
AcDbLine
 10
58.842229
 20
-10.917543
 30
0.0
 11
58.842229
 21
-11.485043
 31
0.0
  0
LINE
  5
DB5
100
AcDbEntity
  8
0
  6
CONTINUOUS
100
AcDbLine
 10
58.922229
 20
-10.804364
 30
0.0
 11
58.922229
 21
-11.598221
 31
0.0
  0
LINE
  5
DB6
100
AcDbEntity
  8
0
  6
CONTINUOUS
100
AcDbLine
 10
59.422229
 20
-10.804364
 30
0.0
 11
59.422229
 21
-11.598221
 31
0.0
  0
LWPOLYLINE
  5
DB7
100
AcDbEntity
  8
0
  6
CONTINUOUS
 62
     7
100
AcDbPolyline
 90
       39
 70
     0
 43
0.0
 10
61.638027
 20
-12.387828
 10
61.638027
 20
-12.387097
 10
61.638027
 20
-12.379764
 10
61.638027
 20
-12.364598
 10
61.638027
 20
-12.341701
 10
61.638027
 20
-12.311225
 10
61.638027
 20
-12.273373
 10
61.638027
 20
-12.228396
 10
61.638027
 20
-12.176595
 10
61.638027
 20
-12.118313
 10
61.638027
 20
-12.053939
 10
61.638027
 20
-11.983901
 10
61.638027
 20
-11.908665
 10
61.638027
 20
-11.828731
 10
61.638027
 20
-11.744633
 10
61.638027
 20
-11.656929
 10
61.638027
 20
-11.566203
 10
61.638027
 20
-11.473058
 10
61.638027
 20
-11.378115
 10
61.638027
 20
-11.282006
 10
61.638027
 20
-11.18537
 10
61.638027
 20
-11.08885
 10
61.638027
 20
-10.993089
 10
61.638027
 20
-10.898723
 10
61.638027
 20
-10.806381
 10
61.638027
 20
-10.716678
 10
61.638027
 20
-10.630209
 10
61.638027
 20
-10.547552
 10
61.638027
 20
-10.469255
 10
61.638027
 20
-10.39584
 10
61.638027
 20
-10.327795
 10
61.638027
 20
-10.265574
 10
61.638027
 20
-10.209589
 10
61.638027
 20
-10.160215
 10
61.638027
 20
-10.117779
 10
61.638027
 20
-10.082564
 10
61.638027
 20
-10.054804
 10
61.638027
 20
-10.034684
 10
61.638027
 20
-10.022338
  0
LWPOLYLINE
  5
DB8
100
AcDbEntity
  8
0
  6
CONTINUOUS
 62
     7
100
AcDbPolyline
 90
       37
 70
     0
 43
0.0
 10
61.569363
 20
-12.300451
 10
61.569363
 20
-12.296713
 10
61.569363
 20
-12.285097
 10
61.569363
 20
-12.265683
 10
61.569363
 20
-12.238611
 10
61.569363
 20
-12.204077
 10
61.569363
 20
-12.162328
 10
61.569363
 20
-12.113666
 10
61.569363
 20
-12.058442
 10
61.569363
 20
-11.997053
 10
61.569363
 20
-11.929941
 10
61.569363
 20
-11.857591
 10
61.569363
 20
-11.780523
 10
61.569363
 20
-11.699292
 10
61.569363
 20
-11.614485
 10
61.569363
 20
-11.526712
 10
61.569363
 20
-11.436605
 10
61.569363
 20
-11.344814
 10
61.569363
 20
-11.251999
 10
61.569363
 20
-11.158831
 10
61.569363
 20
-11.065979
 10
61.569363
 20
-10.974114
 10
61.569363
 20
-10.883896
 10
61.569363
 20
-10.795976
 10
61.569363
 20
-10.710988
 10
61.569363
 20
-10.629543
 10
61.569363
 20
-10.552229
 10
61.569363
 20
-10.479602
 10
61.569363
 20
-10.412187
 10
61.569363
 20
-10.350468
 10
61.569363
 20
-10.29489
 10
61.569363
 20
-10.245854
 10
61.569363
 20
-10.203713
 10
61.569363
 20
-10.16877
 10
61.569363
 20
-10.141278
 10
61.569363
 20
-10.121435
 10
61.569363
 20
-10.109383
  0
LWPOLYLINE
  5
DB9
100
AcDbEntity
  8
0
  6
CONTINUOUS
 62
     7
100
AcDbPolyline
 90
       37
 70
     0
 43
0.0
 10
61.508027
 20
-12.286456
 10
61.508027
 20
-12.285508
 10
61.508027
 20
-12.277603
 10
61.508027
 20
-12.261742
 10
61.508027
 20
-12.23804
 10
61.508027
 20
-12.206674
 10
61.508027
 20
-12.167877
 10
61.508027
 20
-12.121934
 10
61.508027
 20
-12.069186
 10
61.508027
 20
-12.010025
 10
61.508027
 20
-11.944887
 10
61.508027
 20
-11.874255
 10
61.508027
 20
-11.798652
 10
61.508027
 20
-11.718638
 10
61.508027
 20
-11.634805
 10
61.508027
 20
-11.547774
 10
61.508027
 20
-11.458189
 10
61.508027
 20
-11.366713
 10
61.508027
 20
-11.274024
 10
61.508027
 20
-11.180808
 10
61.508027
 20
-11.087755
 10
61.508027
 20
-10.995554
 10
61.508027
 20
-10.904888
 10
61.508027
 20
-10.816427
 10
61.508027
 20
-10.730827
 10
61.508027
 20
-10.648722
 10
61.508027
 20
-10.570719
 10
61.508027
 20
-10.497396
 10
61.508027
 20
-10.429295
 10
61.508027
 20
-10.366922
 10
61.508027
 20
-10.310738
 10
61.508027
 20
-10.261158
 10
61.508027
 20
-10.21855
 10
61.508027
 20
-10.183229
 10
61.508027
 20
-10.155457
 10
61.508027
 20
-10.13544
 10
61.508027
 20
-10.123325
  0
LWPOLYLINE
  5
DBA
100
AcDbEntity
  8
0
  6
CONTINUOUS
 62
     7
100
AcDbPolyline
 90
       38
 70
     0
 43
0.0
 10
61.388027
 20
-12.345328
 10
61.388027
 20
-12.344486
 10
61.388027
 20
-12.336812
 10
61.388027
 20
-12.321184
 10
61.388027
 20
-12.297712
 10
61.388027
 20
-12.26656
 10
61.388027
 20
-12.227946
 10
61.388027
 20
-12.182142
 10
61.388027
 20
-12.129469
 10
61.388027
 20
-12.070296
 10
61.388027
 20
-12.005038
 10
61.388027
 20
-11.934154
 10
61.388027
 20
-11.85814
 10
61.388027
 20
-11.777529
 10
61.388027
 20
-11.692887
 10
61.388027
 20
-11.604808
 10
61.388027
 20
-11.513909
 10
61.388027
 20
-11.420828
 10
61.388027
 20
-11.326218
 10
61.388027
 20
-11.230742
 10
61.388027
 20
-11.135071
 10
61.388027
 20
-11.039875
 10
61.388027
 20
-10.945822
 10
61.388027
 20
-10.853572
 10
61.388027
 20
-10.763771
 10
61.388027
 20
-10.67705
 10
61.388027
 20
-10.594017
 10
61.388027
 20
-10.515255
 10
61.388027
 20
-10.441315
 10
61.388027
 20
-10.372717
 10
61.388027
 20
-10.309941
 10
61.388027
 20
-10.253429
 10
61.388027
 20
-10.203575
 10
61.388027
 20
-10.160731
 10
61.388027
 20
-10.125197
 10
61.388027
 20
-10.097221
 10
61.388027
 20
-10.077
 10
61.388027
 20
-10.064676
  0
LINE
  5
DBB
100
AcDbEntity
  8
0
  6
CONTINUOUS
 62
     7
100
AcDbLine
 10
59.848027
 20
-11.024535
 30
0.0
 11
61.388027
 21
-11.024535
 31
0.0
  0
LINE
  5
DBC
100
AcDbEntity
  8
0
  6
CONTINUOUS
 62
     7
100
AcDbLine
 10
59.848027
 20
-10.814313
 30
0.0
 11
61.388027
 21
-10.814313
 31
0.0
  0
LINE
  5
DBD
100
AcDbEntity
  8
0
  6
CONTINUOUS
100
AcDbLine
 10
59.582229
 20
-10.857543
 30
0.0
 11
59.422229
 21
-10.857543
 31
0.0
  0
LINE
  5
DBE
100
AcDbEntity
  8
0
  6
CONTINUOUS
100
AcDbLine
 10
59.422229
 20
-11.002828
 30
0.0
 11
58.922229
 21
-11.002828
 31
0.0
  0
LINE
  5
DBF
100
AcDbEntity
  8
0
  6
CONTINUOUS
100
AcDbLine
 10
59.422229
 20
-10.804364
 30
0.0
 11
58.922229
 21
-10.804364
 31
0.0
  0
ARC
  5
DC0
100
AcDbEntity
  8
0
  6
CONTINUOUS
100
AcDbCircle
 10
58.902229
 20
-10.917543
 30
0.0
 40
0.06
100
AcDbArc
 50
90.0
 51
180.0
  0
LINE
  5
DC1
100
AcDbEntity
  8
0
  6
CONTINUOUS
100
AcDbLine
 10
58.922229
 20
-10.857543
 30
0.0
 11
58.902229
 21
-10.857543
 31
0.0
  0
LINE
  5
DC2
100
AcDbEntity
  8
0
  6
CONTINUOUS
100
AcDbLine
 10
59.661027
 20
-11.014293
 30
0.0
 11
59.582229
 21
-11.014293
 31
0.0
  0
LINE
  5
DC3
100
AcDbEntity
  8
0
100
AcDbLine
 10
59.661027
 20
-11.002828
 30
0.0
 11
59.848027
 21
-11.002828
 31
0.0
  0
LINE
  5
DC4
100
AcDbEntity
  8
0
100
AcDbLine
 10
59.661027
 20
-10.804364
 30
0.0
 11
59.848027
 21
-10.804364
 31
0.0
  0
LINE
  5
DC5
100
AcDbEntity
  8
0
  6
CONTINUOUS
 62
     7
100
AcDbLine
 10
61.638027
 20
-10.017828
 30
0.0
 11
61.569363
 21
-10.105206
 31
0.0
  0
LINE
  5
DC6
100
AcDbEntity
  8
0
  6
CONTINUOUS
 62
     7
100
AcDbLine
 10
61.508027
 20
-10.119201
 30
0.0
 11
61.388027
 21
-10.060328
 31
0.0
  0
LWPOLYLINE
  5
DC7
100
AcDbEntity
  8
0
  6
CONTINUOUS
 62
     7
100
AcDbPolyline
 90
        3
 70
     0
 43
0.0
 10
61.638027
 20
-10.022338
 10
61.638027
 20
-10.017848
 10
61.638027
 20
-10.017828
  0
LWPOLYLINE
  5
DC8
100
AcDbEntity
  8
0
  6
CONTINUOUS
 62
     7
100
AcDbPolyline
 90
        3
 70
     0
 43
0.0
 10
61.388027
 20
-10.064676
 10
61.388027
 20
-10.060335
 10
61.388027
 20
-10.060328
  0
LINE
  5
DC9
100
AcDbEntity
  8
0
  6
CONTINUOUS
 62
     7
100
AcDbLine
 10
61.108027
 20
-10.69074
 30
0.0
 11
61.388027
 21
-10.69074
 31
0.0
  0
LINE
  5
DCA
100
AcDbEntity
  8
0
  6
CONTINUOUS
 62
     7
100
AcDbLine
 10
61.388027
 20
-10.19074
 30
0.0
 11
61.108027
 21
-10.19074
 31
0.0
  0
LINE
  5
DCB
100
AcDbEntity
  8
0
  6
CONTINUOUS
 62
     7
100
AcDbLine
 10
61.108027
 20
-10.15324
 30
0.0
 11
60.878027
 21
-10.15324
 31
0.0
  0
LINE
  5
DCC
100
AcDbEntity
  8
0
  6
CONTINUOUS
 62
     7
100
AcDbLine
 10
60.878027
 20
-10.72824
 30
0.0
 11
61.108027
 21
-10.72824
 31
0.0
  0
LWPOLYLINE
  5
DCD
100
AcDbEntity
  8
0
  6
CONTINUOUS
 62
     7
100
AcDbPolyline
 90
       19
 70
     0
 43
0.0
 10
60.878027
 20
-10.72824
 10
60.878027
 20
-10.724218
 10
60.878027
 20
-10.712042
 10
60.878027
 20
-10.692061
 10
60.878027
 20
-10.66485
 10
60.878027
 20
-10.631192
 10
60.878027
 20
-10.592055
 10
60.878027
 20
-10.548565
 10
60.878027
 20
-10.501973
 10
60.878027
 20
-10.453619
 10
60.878027
 20
-10.404895
 10
60.878027
 20
-10.357202
 10
60.878027
 20
-10.311912
 10
60.878027
 20
-10.270328
 10
60.878027
 20
-10.233647
 10
60.878027
 20
-10.202923
 10
60.878027
 20
-10.179041
 10
60.878027
 20
-10.162688
 10
60.878027
 20
-10.154334
  0
LINE
  5
DCE
100
AcDbEntity
  8
0
  6
CONTINUOUS
 62
     7
100
AcDbLine
 10
60.878027
 20
-10.154334
 30
0.0
 11
60.878027
 21
-10.15324
 31
0.0
  0
LINE
  5
DCF
100
AcDbEntity
  8
0
  6
CONTINUOUS
 62
     7
100
AcDbLine
 10
60.878027
 20
-10.34074
 30
0.0
 11
60.648027
 21
-10.34074
 31
0.0
  0
LINE
  5
DD0
100
AcDbEntity
  8
0
  6
CONTINUOUS
 62
     7
100
AcDbLine
 10
60.648027
 20
-10.54074
 30
0.0
 11
60.878027
 21
-10.54074
 31
0.0
  0
LINE
  5
DD1
100
AcDbEntity
  8
0
  6
CONTINUOUS
 62
     7
100
AcDbLine
 10
60.648027
 20
-10.34112
 30
0.0
 11
60.648027
 21
-10.34074
 31
0.0
  0
LWPOLYLINE
  5
DD2
100
AcDbEntity
  8
0
  6
CONTINUOUS
 62
     7
100
AcDbPolyline
 90
       12
 70
     0
 43
0.0
 10
60.648027
 20
-10.54074
 10
60.648027
 20
-10.538779
 10
60.648027
 20
-10.529257
 10
60.648027
 20
-10.512563
 10
60.648027
 20
-10.490051
 10
60.648027
 20
-10.463544
 10
60.648027
 20
-10.435189
 10
60.648027
 20
-10.407284
 10
60.648027
 20
-10.382089
 10
60.648027
 20
-10.361646
 10
60.648027
 20
-10.347611
 10
60.648027
 20
-10.34112
  0
LWPOLYLINE
  5
DD3
100
AcDbEntity
  8
0
  6
CONTINUOUS
 62
     7
100
AcDbPolyline
 90
       19
 70
     0
 43
0.0
 10
61.108027
 20
-10.72824
 10
61.108027
 20
-10.724218
 10
61.108027
 20
-10.712042
 10
61.108027
 20
-10.692061
 10
61.108027
 20
-10.66485
 10
61.108027
 20
-10.631192
 10
61.108027
 20
-10.592055
 10
61.108027
 20
-10.548565
 10
61.108027
 20
-10.501973
 10
61.108027
 20
-10.453619
 10
61.108027
 20
-10.404895
 10
61.108027
 20
-10.357202
 10
61.108027
 20
-10.311912
 10
61.108027
 20
-10.270328
 10
61.108027
 20
-10.233647
 10
61.108027
 20
-10.202923
 10
61.108027
 20
-10.179041
 10
61.108027
 20
-10.162688
 10
61.108027
 20
-10.154334
  0
LINE
  5
DD4
100
AcDbEntity
  8
0
  6
CONTINUOUS
 62
     7
100
AcDbLine
 10
61.108027
 20
-10.154334
 30
0.0
 11
61.108027
 21
-10.15324
 31
0.0
  0
LWPOLYLINE
  5
DD5
100
AcDbEntity
  8
0
  6
CONTINUOUS
 62
     7
100
AcDbPolyline
 90
        4
 70
     0
 43
0.0
 10
61.569363
 20
-10.105206
 10
61.551849
 20
-10.11931
 10
61.529925
 20
-10.124312
 10
61.508027
 20
-10.119201
  0
LWPOLYLINE
  5
DD6
100
AcDbEntity
  8
0
  6
CONTINUOUS
 62
     7
100
AcDbPolyline
 90
        3
 70
     0
 43
0.0
 10
61.569363
 20
-10.109383
 10
61.569363
 20
-10.105209
 10
61.569363
 20
-10.105206
  0
LWPOLYLINE
  5
DD7
100
AcDbEntity
  8
0
  6
CONTINUOUS
 62
     7
100
AcDbPolyline
 90
        3
 70
     0
 43
0.0
 10
61.508027
 20
-10.123325
 10
61.508027
 20
-10.119202
 10
61.508027
 20
-10.119201
  0
LINE
  5
DD8
100
AcDbEntity
  8
0
  6
CONTINUOUS
 62
     7
100
AcDbLine
 10
59.848027
 20
-11.438645
 30
0.0
 11
61.388027
 21
-11.438645
 31
0.0
  0
LINE
  5
DD9
100
AcDbEntity
  8
0
  6
CONTINUOUS
 62
     7
100
AcDbLine
 10
59.848027
 20
-11.591344
 30
0.0
 11
61.388027
 21
-11.591344
 31
0.0
  0
LINE
  5
DDA
100
AcDbEntity
  8
0
  6
CONTINUOUS
100
AcDbLine
 10
59.582229
 20
-11.545043
 30
0.0
 11
59.422229
 21
-11.545043
 31
0.0
  0
LINE
  5
DDB
100
AcDbEntity
  8
0
  6
CONTINUOUS
100
AcDbLine
 10
59.422229
 20
-11.399757
 30
0.0
 11
58.922229
 21
-11.399757
 31
0.0
  0
LINE
  5
DDC
100
AcDbEntity
  8
0
  6
CONTINUOUS
100
AcDbLine
 10
59.422229
 20
-11.598221
 30
0.0
 11
58.922229
 21
-11.598221
 31
0.0
  0
ARC
  5
DDD
100
AcDbEntity
  8
0
  6
CONTINUOUS
100
AcDbCircle
 10
58.902229
 20
-11.485043
 30
0.0
 40
0.06
100
AcDbArc
 50
180.0
 51
270.0
  0
LINE
  5
DDE
100
AcDbEntity
  8
0
  6
CONTINUOUS
100
AcDbLine
 10
58.922229
 20
-11.545043
 30
0.0
 11
58.902229
 21
-11.545043
 31
0.0
  0
LINE
  5
DDF
100
AcDbEntity
  8
0
  6
CONTINUOUS
100
AcDbLine
 10
59.661027
 20
-11.388293
 30
0.0
 11
59.582229
 21
-11.388293
 31
0.0
  0
LINE
  5
DE0
100
AcDbEntity
  8
0
100
AcDbLine
 10
59.661027
 20
-11.399757
 30
0.0
 11
59.848027
 21
-11.399757
 31
0.0
  0
LINE
  5
DE1
100
AcDbEntity
  8
0
100
AcDbLine
 10
59.661027
 20
-11.601293
 30
0.0
 11
59.848027
 21
-11.601293
 31
0.0
  0
LWPOLYLINE
  5
DE2
100
AcDbEntity
  8
0
  6
CONTINUOUS
 62
     7
100
AcDbPolyline
 90
        4
 70
     0
 43
0.0
 10
61.508027
 20
-12.286456
 10
61.529925
 20
-12.281345
 10
61.551849
 20
-12.286347
 10
61.569363
 20
-12.300451
  0
LINE
  5
DE3
100
AcDbEntity
  8
0
  6
CONTINUOUS
 62
     7
100
AcDbLine
 10
61.388027
 20
-12.345328
 30
0.0
 11
61.508027
 21
-12.286456
 31
0.0
  0
LINE
  5
DE4
100
AcDbEntity
  8
0
  6
CONTINUOUS
 62
     7
100
AcDbLine
 10
61.108027
 20
-12.214917
 30
0.0
 11
61.388027
 21
-12.214917
 31
0.0
  0
LINE
  5
DE5
100
AcDbEntity
  8
0
  6
CONTINUOUS
 62
     7
100
AcDbLine
 10
61.388027
 20
-11.714917
 30
0.0
 11
61.108027
 21
-11.714917
 31
0.0
  0
LINE
  5
DE6
100
AcDbEntity
  8
0
  6
CONTINUOUS
 62
     7
100
AcDbLine
 10
60.878027
 20
-12.252417
 30
0.0
 11
61.108027
 21
-12.252417
 31
0.0
  0
LINE
  5
DE7
100
AcDbEntity
  8
0
  6
CONTINUOUS
 62
     7
100
AcDbLine
 10
60.648027
 20
-12.042417
 30
0.0
 11
60.878027
 21
-12.042417
 31
0.0
  0
LINE
  5
DE8
100
AcDbEntity
  8
0
  6
CONTINUOUS
 62
     7
100
AcDbLine
 10
60.878027
 20
-11.887417
 30
0.0
 11
60.648027
 21
-11.887417
 31
0.0
  0
LINE
  5
DE9
100
AcDbEntity
  8
0
  6
CONTINUOUS
 62
     7
100
AcDbLine
 10
60.648027
 20
-11.887712
 30
0.0
 11
60.648027
 21
-11.887417
 31
0.0
  0
LWPOLYLINE
  5
DEA
100
AcDbEntity
  8
0
  6
CONTINUOUS
 62
     7
100
AcDbPolyline
 90
       11
 70
     0
 43
0.0
 10
60.648027
 20
-12.042417
 10
60.648027
 20
-12.042181
 10
60.648027
 20
-12.036032
 10
60.648027
 20
-12.022177
 10
60.648027
 20
-12.002116
 10
60.648027
 20
-11.978024
 10
60.648027
 20
-11.952513
 10
60.648027
 20
-11.928345
 10
60.648027
 20
-11.908141
 10
60.648027
 20
-11.894089
 10
60.648027
 20
-11.887712
  0
LINE
  5
DEB
100
AcDbEntity
  8
0
  6
CONTINUOUS
 62
     7
100
AcDbLine
 10
61.108027
 20
-11.677417
 30
0.0
 11
60.878027
 21
-11.677417
 31
0.0
  0
LINE
  5
DEC
100
AcDbEntity
  8
0
  6
CONTINUOUS
 62
     7
100
AcDbLine
 10
60.878027
 20
-11.678511
 30
0.0
 11
60.878027
 21
-11.677417
 31
0.0
  0
LINE
  5
DED
100
AcDbEntity
  8
0
  6
CONTINUOUS
 62
     7
100
AcDbLine
 10
61.108027
 20
-11.678511
 30
0.0
 11
61.108027
 21
-11.677417
 31
0.0
  0
LWPOLYLINE
  5
DEE
100
AcDbEntity
  8
0
  6
CONTINUOUS
 62
     7
100
AcDbPolyline
 90
       19
 70
     0
 43
0.0
 10
61.108027
 20
-12.252417
 10
61.108027
 20
-12.248396
 10
61.108027
 20
-12.23622
 10
61.108027
 20
-12.216239
 10
61.108027
 20
-12.189028
 10
61.108027
 20
-12.15537
 10
61.108027
 20
-12.116233
 10
61.108027
 20
-12.072743
 10
61.108027
 20
-12.02615
 10
61.108027
 20
-11.977797
 10
61.108027
 20
-11.929072
 10
61.108027
 20
-11.881379
 10
61.108027
 20
-11.83609
 10
61.108027
 20
-11.794506
 10
61.108027
 20
-11.757825
 10
61.108027
 20
-11.727101
 10
61.108027
 20
-11.703219
 10
61.108027
 20
-11.686866
 10
61.108027
 20
-11.678511
  0
LWPOLYLINE
  5
DEF
100
AcDbEntity
  8
0
  6
CONTINUOUS
 62
     7
100
AcDbPolyline
 90
       19
 70
     0
 43
0.0
 10
60.878027
 20
-12.252417
 10
60.878027
 20
-12.248396
 10
60.878027
 20
-12.23622
 10
60.878027
 20
-12.216239
 10
60.878027
 20
-12.189028
 10
60.878027
 20
-12.15537
 10
60.878027
 20
-12.116233
 10
60.878027
 20
-12.072743
 10
60.878027
 20
-12.02615
 10
60.878027
 20
-11.977797
 10
60.878027
 20
-11.929072
 10
60.878027
 20
-11.881379
 10
60.878027
 20
-11.83609
 10
60.878027
 20
-11.794506
 10
60.878027
 20
-11.757825
 10
60.878027
 20
-11.727101
 10
60.878027
 20
-11.703219
 10
60.878027
 20
-11.686866
 10
60.878027
 20
-11.678511
  0
LINE
  5
DF0
100
AcDbEntity
  8
0
  6
CONTINUOUS
 62
     7
100
AcDbLine
 10
61.569363
 20
-12.300451
 30
0.0
 11
61.638027
 21
-12.387828
 31
0.0
  0
LWPOLYLINE
  5
DF1
100
AcDbEntity
  8
0
100
AcDbPolyline
 90
        4
 70
     1
 43
0.0
 10
65.345122
 20
-7.636024
 10
64.147646
 20
-7.636024
 10
64.147646
 20
-7.992653
 10
65.345122
 20
-7.992653
  0
LINE
  5
DF2
100
AcDbEntity
  8
0
  6
CONTINUOUS
100
AcDbLine
 10
63.922549
 20
-8.104538
 30
0.0
 11
65.695261
 21
-8.104538
 31
0.0
  0
ARC
  5
DF3
100
AcDbEntity
  8
0
  6
CONTINUOUS
100
AcDbCircle
 10
65.326506
 20
-7.230538
 30
0.0
 40
0.3
100
AcDbArc
 50
180.0
 51
270.0
  0
LINE
  5
DF4
100
AcDbEntity
  8
0
  6
CONTINUOUS
100
AcDbLine
 10
64.93797
 20
-6.831741
 30
0.0
 11
64.93797
 21
-6.331741
 31
0.0
  0
LINE
  5
DF5
100
AcDbEntity
  8
0
  6
CONTINUOUS
100
AcDbLine
 10
65.136434
 20
-6.831741
 30
0.0
 11
65.136434
 21
-6.331741
 31
0.0
  0
LINE
  5
DF6
100
AcDbEntity
  8
0
  6
CONTINUOUS
100
AcDbLine
 10
64.541042
 20
-6.831741
 30
0.0
 11
64.541042
 21
-6.331741
 31
0.0
  0
LINE
  5
DF7
100
AcDbEntity
  8
0
  6
CONTINUOUS
100
AcDbLine
 10
64.342578
 20
-6.831741
 30
0.0
 11
64.342578
 21
-6.331741
 31
0.0
  0
LINE
  5
DF8
100
AcDbEntity
  8
0
  6
CONTINUOUS
100
AcDbLine
 10
64.455756
 20
-6.251741
 30
0.0
 11
65.023256
 21
-6.251741
 31
0.0
  0
LINE
  5
DF9
100
AcDbEntity
  8
0
  6
CONTINUOUS
100
AcDbLine
 10
64.342578
 20
-6.331741
 30
0.0
 11
65.136434
 21
-6.331741
 31
0.0
  0
LINE
  5
DFA
100
AcDbEntity
  8
0
  6
CONTINUOUS
100
AcDbLine
 10
64.395756
 20
-6.331741
 30
0.0
 11
64.395756
 21
-6.311741
 31
0.0
  0
ARC
  5
DFB
100
AcDbEntity
  8
0
  6
CONTINUOUS
100
AcDbCircle
 10
64.455756
 20
-6.311741
 30
0.0
 40
0.06
100
AcDbArc
 50
90.0
 51
180.0
  0
LINE
  5
DFC
100
AcDbEntity
  8
0
  6
CONTINUOUS
100
AcDbLine
 10
65.083256
 20
-6.331741
 30
0.0
 11
65.083256
 21
-6.311741
 31
0.0
  0
ARC
  5
DFD
100
AcDbEntity
  8
0
  6
CONTINUOUS
100
AcDbCircle
 10
65.023256
 20
-6.311741
 30
0.0
 40
0.06
100
AcDbArc
 50
0.0
 51
90.0
  0
LINE
  5
DFE
100
AcDbEntity
  8
0
  6
CONTINUOUS
100
AcDbLine
 10
63.783752
 20
-8.161288
 30
0.0
 11
63.623752
 21
-8.161288
 31
0.0
  0
LINE
  5
DFF
100
AcDbEntity
  8
0
  6
CONTINUOUS
100
AcDbLine
 10
63.783752
 20
-7.473788
 30
0.0
 11
63.623752
 21
-7.473788
 31
0.0
  0
LINE
  5
E00
100
AcDbEntity
  8
0
  6
CONTINUOUS
100
AcDbLine
 10
63.623752
 20
-8.214466
 30
0.0
 11
63.623752
 21
-7.42061
 31
0.0
  0
LINE
  5
E01
100
AcDbEntity
  8
0
  6
CONTINUOUS
100
AcDbLine
 10
63.123752
 20
-8.214466
 30
0.0
 11
63.123752
 21
-7.42061
 31
0.0
  0
LINE
  5
E02
100
AcDbEntity
  8
0
  6
CONTINUOUS
100
AcDbLine
 10
63.043752
 20
-8.101288
 30
0.0
 11
63.043752
 21
-7.533788
 31
0.0
  0
LINE
  5
E03
100
AcDbEntity
  8
0
100
AcDbLine
 10
63.043752
 20
-8.004538
 30
0.0
 11
63.043752
 21
-7.630538
 31
0.0
  0
LINE
  5
E04
100
AcDbEntity
  8
0
  6
CONTINUOUS
100
AcDbLine
 10
63.623752
 20
-7.619074
 30
0.0
 11
63.123752
 21
-7.619074
 31
0.0
  0
LINE
  5
E05
100
AcDbEntity
  8
0
  6
CONTINUOUS
100
AcDbLine
 10
63.623752
 20
-7.42061
 30
0.0
 11
63.123752
 21
-7.42061
 31
0.0
  0
ARC
  5
E06
100
AcDbEntity
  8
0
  6
CONTINUOUS
100
AcDbCircle
 10
63.103752
 20
-7.533788
 30
0.0
 40
0.06
100
AcDbArc
 50
90.0
 51
180.0
  0
LINE
  5
E07
100
AcDbEntity
  8
0
  6
CONTINUOUS
100
AcDbLine
 10
63.123752
 20
-7.473788
 30
0.0
 11
63.103752
 21
-7.473788
 31
0.0
  0
LINE
  5
E08
100
AcDbEntity
  8
0
  6
CONTINUOUS
100
AcDbLine
 10
63.623752
 20
-8.016002
 30
0.0
 11
63.123752
 21
-8.016002
 31
0.0
  0
LINE
  5
E09
100
AcDbEntity
  8
0
  6
CONTINUOUS
100
AcDbLine
 10
63.623752
 20
-8.214466
 30
0.0
 11
63.123752
 21
-8.214466
 31
0.0
  0
ARC
  5
E0A
100
AcDbEntity
  8
0
  6
CONTINUOUS
100
AcDbCircle
 10
63.103752
 20
-8.101288
 30
0.0
 40
0.06
100
AcDbArc
 50
180.0
 51
270.0
  0
LINE
  5
E0B
100
AcDbEntity
  8
0
  6
CONTINUOUS
100
AcDbLine
 10
63.123752
 20
-8.161288
 30
0.0
 11
63.103752
 21
-8.161288
 31
0.0
  0
LINE
  5
E0C
100
AcDbEntity
  8
0
  6
CONTINUOUS
100
AcDbLine
 10
63.783752
 20
-8.161288
 30
0.0
 11
63.783752
 21
-7.473788
 31
0.0
  0
LINE
  5
E0D
100
AcDbEntity
  8
0
  6
CONTINUOUS
100
AcDbLine
 10
64.395756
 20
-6.991741
 30
0.0
 11
65.083256
 21
-6.991741
 31
0.0
  0
LINE
  5
E0E
100
AcDbEntity
  8
0
100
AcDbLine
 10
65.026506
 20
-7.230538
 30
0.0
 11
64.452506
 21
-7.230538
 31
0.0
  0
LINE
  5
E0F
100
AcDbEntity
  8
0
  6
CONTINUOUS
100
AcDbLine
 10
64.342578
 20
-6.831741
 30
0.0
 11
65.136434
 21
-6.831741
 31
0.0
  0
ARC
  5
E10
100
AcDbEntity
  8
0
  6
CONTINUOUS
100
AcDbCircle
 10
64.152506
 20
-7.230538
 30
0.0
 40
0.3
100
AcDbArc
 50
270.0
 51
0.0
  0
LINE
  5
E11
100
AcDbEntity
  8
0
  6
CONTINUOUS
100
AcDbLine
 10
63.922549
 20
-7.530538
 30
0.0
 11
64.152506
 21
-7.530538
 31
0.0
  0
LINE
  5
E12
100
AcDbEntity
  8
0
  6
CONTINUOUS
100
AcDbLine
 10
64.452506
 20
-7.230538
 30
0.0
 11
64.452506
 21
-6.991741
 31
0.0
  0
LINE
  5
E13
100
AcDbEntity
  8
0
  6
CONTINUOUS
100
AcDbLine
 10
64.395756
 20
-6.991741
 30
0.0
 11
64.395756
 21
-6.831741
 31
0.0
  0
LINE
  5
E14
100
AcDbEntity
  8
0
  6
CONTINUOUS
100
AcDbLine
 10
63.922549
 20
-7.530538
 30
0.0
 11
63.783752
 21
-7.530538
 31
0.0
  0
LINE
  5
E15
100
AcDbEntity
  8
0
  6
CONTINUOUS
100
AcDbLine
 10
65.026506
 20
-7.230538
 30
0.0
 11
65.026506
 21
-6.991741
 31
0.0
  0
LINE
  5
E16
100
AcDbEntity
  8
0
  6
CONTINUOUS
100
AcDbLine
 10
65.083256
 20
-6.991741
 30
0.0
 11
65.083256
 21
-6.831741
 31
0.0
  0
LINE
  5
E17
100
AcDbEntity
  8
0
  6
CONTINUOUS
100
AcDbLine
 10
63.922549
 20
-8.104538
 30
0.0
 11
63.783752
 21
-8.104538
 31
0.0
  0
LINE
  5
E18
100
AcDbEntity
  8
0
  6
CONTINUOUS
100
AcDbLine
 10
65.855261
 20
-8.214466
 30
0.0
 11
65.855261
 21
-7.42061
 31
0.0
  0
LINE
  5
E19
100
AcDbEntity
  8
0
  6
CONTINUOUS
100
AcDbLine
 10
66.355261
 20
-8.214466
 30
0.0
 11
66.355261
 21
-7.42061
 31
0.0
  0
LINE
  5
E1A
100
AcDbEntity
  8
0
  6
CONTINUOUS
100
AcDbLine
 10
66.435261
 20
-8.101288
 30
0.0
 11
66.435261
 21
-7.533788
 31
0.0
  0
LINE
  5
E1B
100
AcDbEntity
  8
0
  6
CONTINUOUS
100
AcDbLine
 10
65.695261
 20
-8.161288
 30
0.0
 11
65.695261
 21
-7.473788
 31
0.0
  0
LINE
  5
E1C
100
AcDbEntity
  8
0
  6
CONTINUOUS
100
AcDbLine
 10
65.855261
 20
-7.619074
 30
0.0
 11
66.355261
 21
-7.619074
 31
0.0
  0
LINE
  5
E1D
100
AcDbEntity
  8
0
  6
CONTINUOUS
100
AcDbLine
 10
65.855261
 20
-7.42061
 30
0.0
 11
66.355261
 21
-7.42061
 31
0.0
  0
LINE
  5
E1E
100
AcDbEntity
  8
0
  6
CONTINUOUS
100
AcDbLine
 10
65.695261
 20
-7.473788
 30
0.0
 11
65.855261
 21
-7.473788
 31
0.0
  0
LINE
  5
E1F
100
AcDbEntity
  8
0
  6
CONTINUOUS
100
AcDbLine
 10
65.326506
 20
-7.530538
 30
0.0
 11
65.695261
 21
-7.530538
 31
0.0
  0
ARC
  5
E20
100
AcDbEntity
  8
0
  6
CONTINUOUS
100
AcDbCircle
 10
66.375261
 20
-7.533788
 30
0.0
 40
0.06
100
AcDbArc
 50
0.0
 51
90.0
  0
LINE
  5
E21
100
AcDbEntity
  8
0
  6
CONTINUOUS
100
AcDbLine
 10
66.355261
 20
-7.473788
 30
0.0
 11
66.375261
 21
-7.473788
 31
0.0
  0
LINE
  5
E22
100
AcDbEntity
  8
0
  6
CONTINUOUS
100
AcDbLine
 10
65.855261
 20
-8.214466
 30
0.0
 11
66.355261
 21
-8.214466
 31
0.0
  0
LINE
  5
E23
100
AcDbEntity
  8
0
  6
CONTINUOUS
100
AcDbLine
 10
65.855261
 20
-8.016002
 30
0.0
 11
66.355261
 21
-8.016002
 31
0.0
  0
LINE
  5
E24
100
AcDbEntity
  8
0
  6
CONTINUOUS
100
AcDbLine
 10
65.695261
 20
-8.161288
 30
0.0
 11
65.855261
 21
-8.161288
 31
0.0
  0
ARC
  5
E25
100
AcDbEntity
  8
0
  6
CONTINUOUS
100
AcDbCircle
 10
66.375261
 20
-8.101288
 30
0.0
 40
0.06
100
AcDbArc
 50
270.0
 51
0.0
  0
LINE
  5
E26
100
AcDbEntity
  8
0
  6
CONTINUOUS
100
AcDbLine
 10
66.355261
 20
-8.161288
 30
0.0
 11
66.375261
 21
-8.161288
 31
0.0
  0
LINE
  5
E27
100
AcDbEntity
  8
0
  6
CONTINUOUS
 62
     7
100
AcDbLine
 10
65.488027
 20
-10.017828
 30
0.0
 11
62.368027
 21
-10.017828
 31
0.0
  0
LINE
  5
E28
100
AcDbEntity
  8
0
  6
CONTINUOUS
 62
     7
100
AcDbLine
 10
62.368027
 20
-12.387828
 30
0.0
 11
65.488027
 21
-12.387828
 31
0.0
  0
LWPOLYLINE
  5
E2A
100
AcDbEntity
  8
0
  6
CONTINUOUS
 62
     7
100
AcDbPolyline
 90
       39
 70
     0
 43
0.0
 10
62.203027
 20
-12.387828
 10
62.203027
 20
-12.387097
 10
62.203027
 20
-12.379764
 10
62.203027
 20
-12.364598
 10
62.203027
 20
-12.341701
 10
62.203027
 20
-12.311225
 10
62.203027
 20
-12.273373
 10
62.203027
 20
-12.228396
 10
62.203027
 20
-12.176595
 10
62.203027
 20
-12.118313
 10
62.203027
 20
-12.053939
 10
62.203027
 20
-11.983901
 10
62.203027
 20
-11.908665
 10
62.203027
 20
-11.828731
 10
62.203027
 20
-11.744633
 10
62.203027
 20
-11.656929
 10
62.203027
 20
-11.566203
 10
62.203027
 20
-11.473058
 10
62.203027
 20
-11.378115
 10
62.203027
 20
-11.282006
 10
62.203027
 20
-11.18537
 10
62.203027
 20
-11.08885
 10
62.203027
 20
-10.993089
 10
62.203027
 20
-10.898723
 10
62.203027
 20
-10.806381
 10
62.203027
 20
-10.716678
 10
62.203027
 20
-10.630209
 10
62.203027
 20
-10.547552
 10
62.203027
 20
-10.469255
 10
62.203027
 20
-10.39584
 10
62.203027
 20
-10.327795
 10
62.203027
 20
-10.265574
 10
62.203027
 20
-10.209589
 10
62.203027
 20
-10.160215
 10
62.203027
 20
-10.117779
 10
62.203027
 20
-10.082564
 10
62.203027
 20
-10.054804
 10
62.203027
 20
-10.034684
 10
62.203027
 20
-10.022338
  0
LWPOLYLINE
  5
E2B
100
AcDbEntity
  8
0
  6
CONTINUOUS
 62
     7
100
AcDbPolyline
 90
       39
 70
     0
 43
0.0
 10
62.368027
 20
-12.387828
 10
62.368027
 20
-12.387097
 10
62.368027
 20
-12.379764
 10
62.368027
 20
-12.364598
 10
62.368027
 20
-12.341701
 10
62.368027
 20
-12.311225
 10
62.368027
 20
-12.273373
 10
62.368027
 20
-12.228396
 10
62.368027
 20
-12.176595
 10
62.368027
 20
-12.118313
 10
62.368027
 20
-12.053939
 10
62.368027
 20
-11.983901
 10
62.368027
 20
-11.908665
 10
62.368027
 20
-11.828731
 10
62.368027
 20
-11.744633
 10
62.368027
 20
-11.656929
 10
62.368027
 20
-11.566203
 10
62.368027
 20
-11.473058
 10
62.368027
 20
-11.378115
 10
62.368027
 20
-11.282006
 10
62.368027
 20
-11.18537
 10
62.368027
 20
-11.08885
 10
62.368027
 20
-10.993089
 10
62.368027
 20
-10.898723
 10
62.368027
 20
-10.806381
 10
62.368027
 20
-10.716678
 10
62.368027
 20
-10.630209
 10
62.368027
 20
-10.547552
 10
62.368027
 20
-10.469255
 10
62.368027
 20
-10.39584
 10
62.368027
 20
-10.327795
 10
62.368027
 20
-10.265574
 10
62.368027
 20
-10.209589
 10
62.368027
 20
-10.160215
 10
62.368027
 20
-10.117779
 10
62.368027
 20
-10.082564
 10
62.368027
 20
-10.054804
 10
62.368027
 20
-10.034684
 10
62.368027
 20
-10.022338
  0
LWPOLYLINE
  5
E2C
100
AcDbEntity
  8
0
  6
CONTINUOUS
 62
     7
100
AcDbPolyline
 90
        3
 70
     0
 43
0.0
 10
62.368027
 20
-10.022338
 10
62.368027
 20
-10.017848
 10
62.368027
 20
-10.017828
  0
LWPOLYLINE
  5
E2D
100
AcDbEntity
  8
0
  6
CONTINUOUS
 62
     7
100
AcDbPolyline
 90
        3
 70
     0
 43
0.0
 10
62.203027
 20
-10.022338
 10
62.203027
 20
-10.017848
 10
62.203027
 20
-10.017828
  0
ARC
  5
E2E
100
AcDbEntity
  8
0
  6
CONTINUOUS
 62
     7
100
AcDbCircle
 10
62.285527
 20
-10.100328
 30
0.0
 40
0.116673
100
AcDbArc
 50
45.0
 51
135.0
  0
ARC
  5
E2F
100
AcDbEntity
  8
0
  6
CONTINUOUS
 62
     7
100
AcDbCircle
 10
62.285527
 20
-12.305328
 30
0.0
 40
0.116673
100
AcDbArc
 50
225.0
 51
315.0
  0
LINE
  5
E30
100
AcDbEntity
  8
0
  6
CONTINUOUS
100
AcDbLine
 10
67.990737
 20
-10.828787
 30
0.0
 11
67.990737
 21
-11.583562
 31
0.0
  0
LINE
  5
E31
100
AcDbEntity
  8
0
  6
CONTINUOUS
100
AcDbLine
 10
67.325737
 20
-11.583562
 30
0.0
 11
67.325737
 21
-10.828787
 31
0.0
  0
LINE
  5
E32
100
AcDbEntity
  8
0
100
AcDbLine
 10
66.236737
 20
-11.454884
 30
0.0
 11
66.236737
 21
-10.957464
 31
0.0
  0
LINE
  5
E33
100
AcDbEntity
  8
0
  6
CONTINUOUS
100
AcDbLine
 10
68.097137
 20
-10.67826
 30
0.0
 11
68.097137
 21
-11.734089
 31
0.0
  0
LINE
  5
E34
100
AcDbEntity
  8
0
100
AcDbLine
 10
65.988027
 20
-11.887828
 30
0.0
 11
65.988027
 21
-10.520435
 31
0.0
  0
LINE
  5
E35
100
AcDbEntity
  8
0
  6
CONTINUOUS
100
AcDbLine
 10
66.341537
 20
-11.663362
 30
0.0
 11
66.341537
 21
-10.748987
 31
0.0
  0
LINE
  5
E36
100
AcDbEntity
  8
0
  6
CONTINUOUS
100
AcDbLine
 10
67.219337
 20
-11.734089
 30
0.0
 11
67.219337
 21
-10.67826
 31
0.0
  0
LINE
  5
E37
100
AcDbEntity
  8
0
100
AcDbLine
 10
65.988027
 20
-11.734089
 30
0.0
 11
65.988027
 21
-10.674174
 31
0.0
  0
LINE
  5
E38
100
AcDbEntity
  8
0
100
AcDbLine
 10
66.236737
 20
-11.734089
 30
0.0
 11
66.236737
 21
-10.674174
 31
0.0
  0
LINE
  5
E39
100
AcDbEntity
  8
0
  6
CONTINUOUS
100
AcDbLine
 10
66.554337
 20
-11.734089
 30
0.0
 11
66.554337
 21
-10.67826
 31
0.0
  0
LWPOLYLINE
  5
E3A
100
AcDbEntity
  8
0
  6
CONTINUOUS
 62
     7
100
AcDbPolyline
 90
       39
 70
     0
 43
0.0
 10
65.488027
 20
-12.387828
 10
65.488027
 20
-12.387097
 10
65.488027
 20
-12.379764
 10
65.488027
 20
-12.364598
 10
65.488027
 20
-12.341701
 10
65.488027
 20
-12.311225
 10
65.488027
 20
-12.273373
 10
65.488027
 20
-12.228396
 10
65.488027
 20
-12.176595
 10
65.488027
 20
-12.118313
 10
65.488027
 20
-12.053939
 10
65.488027
 20
-11.983901
 10
65.488027
 20
-11.908665
 10
65.488027
 20
-11.828731
 10
65.488027
 20
-11.744633
 10
65.488027
 20
-11.656929
 10
65.488027
 20
-11.566203
 10
65.488027
 20
-11.473058
 10
65.488027
 20
-11.378115
 10
65.488027
 20
-11.282006
 10
65.488027
 20
-11.18537
 10
65.488027
 20
-11.08885
 10
65.488027
 20
-10.993089
 10
65.488027
 20
-10.898723
 10
65.488027
 20
-10.806381
 10
65.488027
 20
-10.716678
 10
65.488027
 20
-10.630209
 10
65.488027
 20
-10.547552
 10
65.488027
 20
-10.469255
 10
65.488027
 20
-10.39584
 10
65.488027
 20
-10.327795
 10
65.488027
 20
-10.265574
 10
65.488027
 20
-10.209589
 10
65.488027
 20
-10.160215
 10
65.488027
 20
-10.117779
 10
65.488027
 20
-10.082564
 10
65.488027
 20
-10.054804
 10
65.488027
 20
-10.034684
 10
65.488027
 20
-10.022338
  0
LINE
  5
E3B
100
AcDbEntity
  8
0
  6
CONTINUOUS
100
AcDbLine
 10
66.554337
 20
-10.942217
 30
0.0
 11
67.219337
 21
-10.942217
 31
0.0
  0
LINE
  5
E3C
100
AcDbEntity
  8
0
  6
CONTINUOUS
100
AcDbLine
 10
66.554337
 20
-10.67826
 30
0.0
 11
67.219337
 21
-10.67826
 31
0.0
  0
ARC
  5
E3D
100
AcDbEntity
  8
0
  6
CONTINUOUS
 62
     7
100
AcDbCircle
 10
65.488027
 20
-10.517828
 30
0.0
 40
0.5
100
AcDbArc
 50
0.0
 51
90.0
  0
LWPOLYLINE
  5
E3E
100
AcDbEntity
  8
0
  6
CONTINUOUS
 62
     7
100
AcDbPolyline
 90
        3
 70
     0
 43
0.0
 10
65.488027
 20
-10.022338
 10
65.488027
 20
-10.017848
 10
65.488027
 20
-10.017828
  0
LINE
  5
E3F
100
AcDbEntity
  8
0
100
AcDbLine
 10
66.236737
 20
-10.942217
 30
0.0
 11
65.988027
 21
-10.942217
 31
0.0
  0
LINE
  5
E40
100
AcDbEntity
  8
0
100
AcDbLine
 10
66.236737
 20
-10.674174
 30
0.0
 11
65.988027
 21
-10.674174
 31
0.0
  0
LINE
  5
E41
100
AcDbEntity
  8
0
  6
CONTINUOUS
 62
     7
100
AcDbLine
 10
65.988027
 20
-10.520435
 30
0.0
 11
65.988027
 21
-10.517828
 31
0.0
  0
LINE
  5
E42
100
AcDbEntity
  8
0
  6
CONTINUOUS
100
AcDbLine
 10
66.236737
 20
-10.957464
 30
0.0
 11
66.341537
 21
-10.957464
 31
0.0
  0
LINE
  5
E43
100
AcDbEntity
  8
0
  6
CONTINUOUS
100
AcDbLine
 10
66.341537
 20
-10.748987
 30
0.0
 11
66.554337
 21
-10.748987
 31
0.0
  0
LINE
  5
E44
100
AcDbEntity
  8
0
  6
CONTINUOUS
100
AcDbLine
 10
67.990737
 20
-10.957464
 30
0.0
 11
67.325737
 21
-10.957464
 31
0.0
  0
LINE
  5
E45
100
AcDbEntity
  8
0
  6
CONTINUOUS
100
AcDbLine
 10
67.325737
 20
-10.957464
 30
0.0
 11
67.990737
 21
-10.957464
 31
0.0
  0
LINE
  5
E46
100
AcDbEntity
  8
0
  6
CONTINUOUS
100
AcDbLine
 10
67.219337
 20
-10.748987
 30
0.0
 11
67.245937
 21
-10.748987
 31
0.0
  0
ARC
  5
E47
100
AcDbEntity
  8
0
  6
CONTINUOUS
100
AcDbCircle
 10
67.245937
 20
-10.828787
 30
0.0
 40
0.0798
100
AcDbArc
 50
0.0
 51
90.0
  0
LINE
  5
E48
100
AcDbEntity
  8
0
  6
CONTINUOUS
100
AcDbLine
 10
68.097137
 20
-10.748987
 30
0.0
 11
68.070537
 21
-10.748987
 31
0.0
  0
ARC
  5
E49
100
AcDbEntity
  8
0
  6
CONTINUOUS
100
AcDbCircle
 10
68.070537
 20
-10.828787
 30
0.0
 40
0.0798
100
AcDbArc
 50
90.0
 51
180.0
  0
LINE
  5
E4A
100
AcDbEntity
  8
0
  6
CONTINUOUS
100
AcDbLine
 10
66.554337
 20
-11.734089
 30
0.0
 11
67.219337
 21
-11.734089
 31
0.0
  0
LINE
  5
E4B
100
AcDbEntity
  8
0
  6
CONTINUOUS
100
AcDbLine
 10
66.554337
 20
-11.470132
 30
0.0
 11
67.219337
 21
-11.470132
 31
0.0
  0
ARC
  5
E4C
100
AcDbEntity
  8
0
  6
CONTINUOUS
 62
     7
100
AcDbCircle
 10
65.488027
 20
-11.887828
 30
0.0
 40
0.5
100
AcDbArc
 50
270.0
 51
0.0
  0
LINE
  5
E4D
100
AcDbEntity
  8
0
100
AcDbLine
 10
66.236737
 20
-11.734089
 30
0.0
 11
65.988027
 21
-11.734089
 31
0.0
  0
LINE
  5
E4E
100
AcDbEntity
  8
0
100
AcDbLine
 10
66.236737
 20
-11.470132
 30
0.0
 11
65.988027
 21
-11.470132
 31
0.0
  0
LINE
  5
E4F
100
AcDbEntity
  8
0
  6
CONTINUOUS
100
AcDbLine
 10
66.236737
 20
-11.454884
 30
0.0
 11
66.341537
 21
-11.454884
 31
0.0
  0
LINE
  5
E50
100
AcDbEntity
  8
0
  6
CONTINUOUS
100
AcDbLine
 10
66.341537
 20
-11.663362
 30
0.0
 11
66.554337
 21
-11.663362
 31
0.0
  0
LINE
  5
E51
100
AcDbEntity
  8
0
  6
CONTINUOUS
100
AcDbLine
 10
67.990737
 20
-11.454884
 30
0.0
 11
67.325737
 21
-11.454884
 31
0.0
  0
ARC
  5
E52
100
AcDbEntity
  8
0
  6
CONTINUOUS
100
AcDbCircle
 10
67.245937
 20
-11.583562
 30
0.0
 40
0.0798
100
AcDbArc
 50
270.0
 51
0.0
  0
LINE
  5
E53
100
AcDbEntity
  8
0
  6
CONTINUOUS
100
AcDbLine
 10
67.219337
 20
-11.663362
 30
0.0
 11
67.245937
 21
-11.663362
 31
0.0
  0
LINE
  5
E54
100
AcDbEntity
  8
0
  6
CONTINUOUS
100
AcDbLine
 10
68.097137
 20
-11.663362
 30
0.0
 11
68.070537
 21
-11.663362
 31
0.0
  0
ARC
  5
E55
100
AcDbEntity
  8
0
  6
CONTINUOUS
100
AcDbCircle
 10
68.070537
 20
-11.583562
 30
0.0
 40
0.0798
100
AcDbArc
 50
180.0
 51
270.0
  0
LWPOLYLINE
  5
E56
100
AcDbEntity
  8
0
100
AcDbPolyline
 90
        4
 70
     1
 43
0.0
 10
79.331157
 20
-14.629524
 10
93.451053
 20
-14.629524
 10
93.451053
 20
-7.293576
 10
79.331157
 20
-7.293576
  0
LINE
  5
E57
100
AcDbEntity
  8
0
  6
CONTINUOUS
100
AcDbLine
 10
74.894757
 20
-11.474217
 30
0.0
 11
75.559757
 21
-11.474217
 31
0.0
  0
LINE
  5
E58
100
AcDbEntity
  8
0
  6
CONTINUOUS
100
AcDbLine
 10
74.894757
 20
-11.738174
 30
0.0
 11
75.559757
 21
-11.738174
 31
0.0
  0
LINE
  5
E59
100
AcDbEntity
  8
0
  6
CONTINUOUS
100
AcDbLine
 10
74.894757
 20
-10.946302
 30
0.0
 11
75.559757
 21
-10.946302
 31
0.0
  0
LINE
  5
E5A
100
AcDbEntity
  8
0
  6
CONTINUOUS
100
AcDbLine
 10
74.894757
 20
-10.682345
 30
0.0
 11
75.559757
 21
-10.682345
 31
0.0
  0
LEADER
  5
E5B
100
AcDbEntity
  8
0
100
AcDbLeader
  3
STANDARD
 40
0.18
 41
0.18
 76
     2
 10
68.722895
 20
-8.703057
 30
0.0
 10
71.816262
 20
-8.703057
 30
0.0
 77
   256
211
-1.0
221
0.0000000000000002
231
0.0
213
0.0
223
-0.09
233
0.0
1001
ACAD
1000
DSTYLE
1002
{
1070
     5
1000

1070
    41
1040
0.5
1070
   342
1005
0
1002
}
  0
LINE
  5
E5D
100
AcDbEntity
  8
0
100
AcDbLine
 10
69.328447
 20
-10.083217
 30
0.0
 11
74.328447
 21
-10.083217
 31
0.0
  0
LINE
  5
E5E
100
AcDbEntity
  8
0
100
AcDbLine
 10
69.328447
 20
-12.333217
 30
0.0
 11
74.328447
 21
-12.333217
 31
0.0
  0
LINE
  5
E60
100
AcDbEntity
  8
0
100
AcDbLine
 10
69.079737
 20
-10.957464
 30
0.0
 11
69.079737
 21
-11.454884
 31
0.0
  0
LINE
  5
E61
100
AcDbEntity
  8
0
100
AcDbLine
 10
69.328447
 20
-12.333217
 30
0.0
 11
69.328447
 21
-10.083217
 31
0.0
  0
LINE
  5
E62
100
AcDbEntity
  8
0
100
AcDbLine
 10
69.328447
 20
-10.67826
 30
0.0
 11
69.328447
 21
-11.738174
 31
0.0
  0
LINE
  5
E63
100
AcDbEntity
  8
0
100
AcDbLine
 10
69.079737
 20
-10.67826
 30
0.0
 11
69.079737
 21
-11.738174
 31
0.0
  0
LINE
  5
E64
100
AcDbEntity
  8
0
  6
CONTINUOUS
100
AcDbLine
 10
68.974937
 20
-10.748987
 30
0.0
 11
68.974937
 21
-11.663362
 31
0.0
  0
LINE
  5
E65
100
AcDbEntity
  8
0
  6
CONTINUOUS
100
AcDbLine
 10
68.762137
 20
-10.67826
 30
0.0
 11
68.762137
 21
-11.734089
 31
0.0
  0
LINE
  5
E66
100
AcDbEntity
  8
0
100
AcDbLine
 10
69.079737
 20
-10.942217
 30
0.0
 11
69.328447
 21
-10.942217
 31
0.0
  0
LINE
  5
E67
100
AcDbEntity
  8
0
  6
CONTINUOUS
100
AcDbLine
 10
69.079737
 20
-10.957464
 30
0.0
 11
68.974937
 21
-10.957464
 31
0.0
  0
LINE
  5
E68
100
AcDbEntity
  8
0
100
AcDbLine
 10
69.079737
 20
-10.67826
 30
0.0
 11
69.328447
 21
-10.67826
 31
0.0
  0
LINE
  5
E69
100
AcDbEntity
  8
0
  6
CONTINUOUS
100
AcDbLine
 10
68.974937
 20
-10.748987
 30
0.0
 11
68.762137
 21
-10.748987
 31
0.0
  0
LINE
  5
E6A
100
AcDbEntity
  8
0
100
AcDbLine
 10
69.079737
 20
-11.470132
 30
0.0
 11
69.328447
 21
-11.470132
 31
0.0
  0
LINE
  5
E6B
100
AcDbEntity
  8
0
100
AcDbLine
 10
69.079737
 20
-11.738174
 30
0.0
 11
69.328447
 21
-11.738174
 31
0.0
  0
LINE
  5
E6C
100
AcDbEntity
  8
0
  6
CONTINUOUS
100
AcDbLine
 10
69.079737
 20
-11.454884
 30
0.0
 11
68.974937
 21
-11.454884
 31
0.0
  0
LINE
  5
E6D
100
AcDbEntity
  8
0
  6
CONTINUOUS
100
AcDbLine
 10
68.974937
 20
-11.663362
 30
0.0
 11
68.762137
 21
-11.663362
 31
0.0
  0
LINE
  5
E6E
100
AcDbEntity
  8
0
100
AcDbLine
 10
74.577157
 20
-11.45897
 30
0.0
 11
74.577157
 21
-10.96155
 31
0.0
  0
LINE
  5
E6F
100
AcDbEntity
  8
0
  6
CONTINUOUS
100
AcDbLine
 10
74.894757
 20
-11.738174
 30
0.0
 11
74.894757
 21
-10.682345
 31
0.0
  0
LINE
  5
E70
100
AcDbEntity
  8
0
  6
CONTINUOUS
100
AcDbLine
 10
74.681957
 20
-11.667447
 30
0.0
 11
74.681957
 21
-10.753072
 31
0.0
  0
LINE
  5
E71
100
AcDbEntity
  8
0
100
AcDbLine
 10
74.328447
 20
-11.738174
 30
0.0
 11
74.328447
 21
-10.67826
 31
0.0
  0
LINE
  5
E72
100
AcDbEntity
  8
0
100
AcDbLine
 10
74.577157
 20
-11.738174
 30
0.0
 11
74.577157
 21
-10.67826
 31
0.0
  0
LINE
  5
E73
100
AcDbEntity
  8
0
100
AcDbLine
 10
74.328447
 20
-12.333217
 30
0.0
 11
74.328447
 21
-10.083217
 31
0.0
  0
LINE
  5
E74
100
AcDbEntity
  8
0
100
AcDbLine
 10
74.577157
 20
-10.946302
 30
0.0
 11
74.328447
 21
-10.946302
 31
0.0
  0
LINE
  5
E75
100
AcDbEntity
  8
0
100
AcDbLine
 10
74.577157
 20
-10.67826
 30
0.0
 11
74.328447
 21
-10.67826
 31
0.0
  0
LINE
  5
E76
100
AcDbEntity
  8
0
  6
CONTINUOUS
100
AcDbLine
 10
74.577157
 20
-10.96155
 30
0.0
 11
74.681957
 21
-10.96155
 31
0.0
  0
LINE
  5
E77
100
AcDbEntity
  8
0
  6
CONTINUOUS
100
AcDbLine
 10
74.681957
 20
-10.753072
 30
0.0
 11
74.894757
 21
-10.753072
 31
0.0
  0
LINE
  5
E78
100
AcDbEntity
  8
0
100
AcDbLine
 10
74.577157
 20
-11.474217
 30
0.0
 11
74.328447
 21
-11.474217
 31
0.0
  0
LINE
  5
E79
100
AcDbEntity
  8
0
100
AcDbLine
 10
74.577157
 20
-11.738174
 30
0.0
 11
74.328447
 21
-11.738174
 31
0.0
  0
LINE
  5
E7A
100
AcDbEntity
  8
0
  6
CONTINUOUS
100
AcDbLine
 10
74.681957
 20
-11.667447
 30
0.0
 11
74.894757
 21
-11.667447
 31
0.0
  0
LINE
  5
E7B
100
AcDbEntity
  8
0
  6
CONTINUOUS
100
AcDbLine
 10
74.577157
 20
-11.45897
 30
0.0
 11
74.681957
 21
-11.45897
 31
0.0
  0
LINE
  5
E7C
100
AcDbEntity
  8
0
  6
CONTINUOUS
100
AcDbLine
 10
78.90536
 20
-8.016002
 30
0.0
 11
78.40536
 21
-8.016002
 31
0.0
  0
LINE
  5
E7D
100
AcDbEntity
  8
0
  6
CONTINUOUS
100
AcDbLine
 10
78.90536
 20
-7.42061
 30
0.0
 11
78.40536
 21
-7.42061
 31
0.0
  0
LINE
  5
E7E
100
AcDbEntity
  8
0
  6
CONTINUOUS
100
AcDbLine
 10
78.90536
 20
-7.619074
 30
0.0
 11
78.40536
 21
-7.619074
 31
0.0
  0
LINE
  5
E7F
100
AcDbEntity
  8
0
  6
CONTINUOUS
100
AcDbLine
 10
78.90536
 20
-8.214466
 30
0.0
 11
78.40536
 21
-8.214466
 31
0.0
  0
LINE
  5
E80
100
AcDbEntity
  8
0
  6
CONTINUOUS
100
AcDbLine
 10
78.32536
 20
-8.101288
 30
0.0
 11
78.32536
 21
-7.533788
 31
0.0
  0
LINE
  5
E81
100
AcDbEntity
  8
0
  6
CONTINUOUS
100
AcDbLine
 10
78.40536
 20
-8.214466
 30
0.0
 11
78.40536
 21
-7.42061
 31
0.0
  0
LINE
  5
E82
100
AcDbEntity
  8
0
  6
CONTINUOUS
100
AcDbLine
 10
78.40536
 20
-7.473788
 30
0.0
 11
78.38536
 21
-7.473788
 31
0.0
  0
ARC
  5
E83
100
AcDbEntity
  8
0
  6
CONTINUOUS
100
AcDbCircle
 10
78.38536
 20
-7.533788
 30
0.0
 40
0.06
100
AcDbArc
 50
90.0
 51
180.0
  0
ARC
  5
E84
100
AcDbEntity
  8
0
  6
CONTINUOUS
100
AcDbCircle
 10
78.38536
 20
-8.101288
 30
0.0
 40
0.06
100
AcDbArc
 50
180.0
 51
270.0
  0
LINE
  5
E85
100
AcDbEntity
  8
0
  6
CONTINUOUS
100
AcDbLine
 10
78.40536
 20
-8.161288
 30
0.0
 11
78.38536
 21
-8.161288
 31
0.0
  0
LINE
  5
E86
100
AcDbEntity
  8
0
  6
CONTINUOUS
100
AcDbLine
 10
78.90536
 20
-8.214466
 30
0.0
 11
78.90536
 21
-7.42061
 31
0.0
  0
LINE
  5
E87
100
AcDbEntity
  8
0
100
AcDbLine
 10
79.331157
 20
-8.214466
 30
0.0
 11
79.331157
 21
-7.417538
 31
0.0
  0
LINE
  5
E88
100
AcDbEntity
  8
0
100
AcDbLine
 10
79.144157
 20
-8.214466
 30
0.0
 11
79.144157
 21
-7.417538
 31
0.0
  0
LINE
  5
E89
100
AcDbEntity
  8
0
  6
CONTINUOUS
100
AcDbLine
 10
79.06536
 20
-8.161288
 30
0.0
 11
79.06536
 21
-7.473788
 31
0.0
  0
LINE
  5
E8A
100
AcDbEntity
  8
0
100
AcDbLine
 10
79.144157
 20
-8.004538
 30
0.0
 11
79.144157
 21
-7.630538
 31
0.0
  0
LINE
  5
E8B
100
AcDbEntity
  8
0
100
AcDbLine
 10
79.144157
 20
-7.417538
 30
0.0
 11
79.331157
 21
-7.417538
 31
0.0
  0
LINE
  5
E8C
100
AcDbEntity
  8
0
100
AcDbLine
 10
79.144157
 20
-7.619074
 30
0.0
 11
79.331157
 21
-7.619074
 31
0.0
  0
LINE
  5
E8D
100
AcDbEntity
  8
0
  6
CONTINUOUS
100
AcDbLine
 10
79.144157
 20
-7.630538
 30
0.0
 11
79.06536
 21
-7.630538
 31
0.0
  0
LINE
  5
E8E
100
AcDbEntity
  8
0
  6
CONTINUOUS
100
AcDbLine
 10
79.06536
 20
-7.473788
 30
0.0
 11
78.90536
 21
-7.473788
 31
0.0
  0
LINE
  5
E8F
100
AcDbEntity
  8
0
100
AcDbLine
 10
79.144157
 20
-8.016002
 30
0.0
 11
79.331157
 21
-8.016002
 31
0.0
  0
LINE
  5
E90
100
AcDbEntity
  8
0
  6
CONTINUOUS
100
AcDbLine
 10
79.144157
 20
-8.004538
 30
0.0
 11
79.06536
 21
-8.004538
 31
0.0
  0
LINE
  5
E91
100
AcDbEntity
  8
0
100
AcDbLine
 10
79.144157
 20
-8.214466
 30
0.0
 11
79.331157
 21
-8.214466
 31
0.0
  0
LINE
  5
E92
100
AcDbEntity
  8
0
  6
CONTINUOUS
100
AcDbLine
 10
79.06536
 20
-8.161288
 30
0.0
 11
78.90536
 21
-8.161288
 31
0.0
  0
LINE
  5
E93
100
AcDbEntity
  8
0
  6
CONTINUOUS
100
AcDbLine
 10
78.764857
 20
-10.682345
 30
0.0
 11
78.099857
 21
-10.682345
 31
0.0
  0
LINE
  5
E94
100
AcDbEntity
  8
0
  6
CONTINUOUS
100
AcDbLine
 10
78.764857
 20
-10.946302
 30
0.0
 11
78.099857
 21
-10.946302
 31
0.0
  0
LINE
  5
E95
100
AcDbEntity
  8
0
  6
CONTINUOUS
100
AcDbLine
 10
78.764857
 20
-11.738174
 30
0.0
 11
78.099857
 21
-11.738174
 31
0.0
  0
LINE
  5
E96
100
AcDbEntity
  8
0
  6
CONTINUOUS
100
AcDbLine
 10
78.764857
 20
-11.474217
 30
0.0
 11
78.099857
 21
-11.474217
 31
0.0
  0
LINE
  5
E97
100
AcDbEntity
  8
0
  6
CONTINUOUS
100
AcDbLine
 10
77.993457
 20
-11.587647
 30
0.0
 11
77.993457
 21
-10.832872
 31
0.0
  0
LINE
  5
E98
100
AcDbEntity
  8
0
  6
CONTINUOUS
100
AcDbLine
 10
75.666157
 20
-11.587647
 30
0.0
 11
75.666157
 21
-10.832872
 31
0.0
  0
LINE
  5
E99
100
AcDbEntity
  8
0
  6
CONTINUOUS
100
AcDbLine
 10
78.099857
 20
-11.738174
 30
0.0
 11
78.099857
 21
-10.682345
 31
0.0
  0
LINE
  5
E9A
100
AcDbEntity
  8
0
  6
CONTINUOUS
100
AcDbLine
 10
75.559757
 20
-11.738174
 30
0.0
 11
75.559757
 21
-10.682345
 31
0.0
  0
LINE
  5
E9B
100
AcDbEntity
  8
0
  6
CONTINUOUS
100
AcDbLine
 10
75.666157
 20
-10.96155
 30
0.0
 11
77.993457
 21
-10.96155
 31
0.0
  0
LINE
  5
E9C
100
AcDbEntity
  8
0
  6
CONTINUOUS
100
AcDbLine
 10
75.559757
 20
-10.753072
 30
0.0
 11
75.586357
 21
-10.753072
 31
0.0
  0
ARC
  5
E9D
100
AcDbEntity
  8
0
  6
CONTINUOUS
100
AcDbCircle
 10
75.586357
 20
-10.832872
 30
0.0
 40
0.0798
100
AcDbArc
 50
0.0
 51
90.0
  0
LINE
  5
E9E
100
AcDbEntity
  8
0
  6
CONTINUOUS
100
AcDbLine
 10
78.099857
 20
-10.753072
 30
0.0
 11
78.073257
 21
-10.753072
 31
0.0
  0
ARC
  5
E9F
100
AcDbEntity
  8
0
  6
CONTINUOUS
100
AcDbCircle
 10
78.073257
 20
-10.832872
 30
0.0
 40
0.0798
100
AcDbArc
 50
90.0
 51
180.0
  0
LINE
  5
EA0
100
AcDbEntity
  8
0
  6
CONTINUOUS
100
AcDbLine
 10
75.666157
 20
-11.45897
 30
0.0
 11
77.993457
 21
-11.45897
 31
0.0
  0
LINE
  5
EA1
100
AcDbEntity
  8
0
  6
CONTINUOUS
100
AcDbLine
 10
75.559757
 20
-11.667447
 30
0.0
 11
75.586357
 21
-11.667447
 31
0.0
  0
ARC
  5
EA2
100
AcDbEntity
  8
0
  6
CONTINUOUS
100
AcDbCircle
 10
75.586357
 20
-11.587647
 30
0.0
 40
0.0798
100
AcDbArc
 50
270.0
 51
0.0
  0
ARC
  5
EA3
100
AcDbEntity
  8
0
  6
CONTINUOUS
100
AcDbCircle
 10
78.073257
 20
-11.587647
 30
0.0
 40
0.0798
100
AcDbArc
 50
180.0
 51
270.0
  0
LINE
  5
EA4
100
AcDbEntity
  8
0
  6
CONTINUOUS
100
AcDbLine
 10
78.099857
 20
-11.667447
 30
0.0
 11
78.073257
 21
-11.667447
 31
0.0
  0
LINE
  5
EA5
100
AcDbEntity
  8
0
100
AcDbLine
 10
79.082458
 20
-11.45897
 30
0.0
 11
79.082458
 21
-10.96155
 31
0.0
  0
LINE
  5
EA6
100
AcDbEntity
  8
0
100
AcDbLine
 10
79.082458
 20
-11.738174
 30
0.0
 11
79.082458
 21
-10.67826
 31
0.0
  0
LINE
  5
EA7
100
AcDbEntity
  8
0
  6
CONTINUOUS
100
AcDbLine
 10
78.977657
 20
-11.667447
 30
0.0
 11
78.977657
 21
-10.753072
 31
0.0
  0
LINE
  5
EA8
100
AcDbEntity
  8
0
  6
CONTINUOUS
100
AcDbLine
 10
78.764857
 20
-11.738174
 30
0.0
 11
78.764857
 21
-10.682345
 31
0.0
  0
LINE
  5
EA9
100
AcDbEntity
  8
0
100
AcDbLine
 10
79.331168
 20
-11.738174
 30
0.0
 11
79.331168
 21
-10.67826
 31
0.0
  0
LINE
  5
EAA
100
AcDbEntity
  8
0
100
AcDbLine
 10
79.082458
 20
-10.946302
 30
0.0
 11
79.331168
 21
-10.946302
 31
0.0
  0
LINE
  5
EAB
100
AcDbEntity
  8
0
  6
CONTINUOUS
100
AcDbLine
 10
79.082458
 20
-10.96155
 30
0.0
 11
78.977657
 21
-10.96155
 31
0.0
  0
LINE
  5
EAC
100
AcDbEntity
  8
0
100
AcDbLine
 10
79.082458
 20
-10.67826
 30
0.0
 11
79.331168
 21
-10.67826
 31
0.0
  0
LINE
  5
EAD
100
AcDbEntity
  8
0
  6
CONTINUOUS
100
AcDbLine
 10
78.977657
 20
-10.753072
 30
0.0
 11
78.764857
 21
-10.753072
 31
0.0
  0
LINE
  5
EAE
100
AcDbEntity
  8
0
100
AcDbLine
 10
79.082458
 20
-11.738174
 30
0.0
 11
79.331168
 21
-11.738174
 31
0.0
  0
LINE
  5
EAF
100
AcDbEntity
  8
0
100
AcDbLine
 10
79.082458
 20
-11.474217
 30
0.0
 11
79.331168
 21
-11.474217
 31
0.0
  0
LINE
  5
EB0
100
AcDbEntity
  8
0
  6
CONTINUOUS
100
AcDbLine
 10
79.082458
 20
-11.45897
 30
0.0
 11
78.977657
 21
-11.45897
 31
0.0
  0
LINE
  5
EB1
100
AcDbEntity
  8
0
  6
CONTINUOUS
100
AcDbLine
 10
78.977657
 20
-11.667447
 30
0.0
 11
78.764857
 21
-11.667447
 31
0.0
  0
LINE
  5
EB2
100
AcDbEntity
  8
0
  6
CONTINUOUS
100
AcDbLine
 10
51.665454
 20
0.681967
 30
0.0
 11
51.665454
 21
-0.602571
 31
0.0
  0
LINE
  5
EB3
100
AcDbEntity
  8
0
  6
CONTINUOUS
100
AcDbLine
 10
51.291454
 20
0.681967
 30
0.0
 11
51.290356
 21
-6.121784
 31
0.0
  0
TEXT
  5
EB4
100
AcDbEntity
  8
0
100
AcDbText
 10
62.794679
 20
-11.413686
 30
0.0
 40
0.2
  1
FUEL PUMP
100
AcDbText
  0
TEXT
  5
EB5
100
AcDbEntity
  8
0
100
AcDbText
 10
70.637155
 20
-11.335329
 30
0.0
 40
0.2
  1
FUEL FILTER
100
AcDbText
  0
LEADER
  5
EB6
100
AcDbEntity
  8
0
100
AcDbLeader
  3
STANDARD
 40
0.18
 41
0.18
 76
     2
 10
70.241761
 20
-10.571587
 30
0.0
 10
73.335128
 20
-10.571587
 30
0.0
 77
   256
211
-1.0
221
0.0
231
0.0
210
0.0
220
0.0
230
-1.0
213
0.0
223
0.09
233
0.0
1001
ACAD
1000
DSTYLE
1002
{
1070
     5
1000

1070
    41
1040
0.5
1070
   342
1005
0
1002
}
  0
LEADER
  5
EB7
100
AcDbEntity
  8
0
100
AcDbLeader
  3
STANDARD
 40
0.18
 41
0.18
 76
     2
 10
74.941972
 20
-6.136802
 30
0.0
 10
71.848605
 20
-6.136802
 30
0.0
 77
   256
211
1.0
221
0.0000000000000001
231
0.0
210
0.0
220
0.0
230
-1.0
213
0.0
223
-0.09
233
0.0
1001
ACAD
1000
DSTYLE
1002
{
1070
     5
1000

1070
    41
1040
0.5
1070
   342
1005
0
1002
}
  0
TEXT
  5
EB8
100
AcDbEntity
  8
0
100
AcDbText
 10
57.054365
 20
-7.69936
 30
0.0
 40
0.1
  1
FLOW
100
AcDbText
  0
LEADER
  5
EB9
100
AcDbEntity
  8
0
100
AcDbLeader
  3
STANDARD
 40
0.18
 41
0.18
 76
     2
 10
57.778822
 20
-7.84222
 30
0.0
 10
56.901848
 20
-7.84222
 30
0.0
 77
   256
213
0.0
223
0.09
233
0.0
1001
ACAD
1000
DSTYLE
1002
{
1070
     5
1000

1070
    77
1070
     0
1070
   147
1040
0.09
1070
   342
1005
0
1002
}
  0
TEXT
  5
EBB
100
AcDbEntity
  8
0
100
AcDbText
 10
56.610927
 20
12.677704
 30
0.0
 40
0.1
  1
50 lb. CHECK VALVE
100
AcDbText
  0
TEXT
  5
ECB
100
AcDbEntity
  8
0
100
AcDbText
 10
81.925084
 20
15.353873
 30
0.0
 40
0.2
  1
FUEL TANK
100
AcDbText
  0
TEXT
  5
ECC
100
AcDbEntity
  8
0
100
AcDbText
 10
81.620627
 20
-12.530373
 30
0.0
 40
0.2
  1
FUEL TANK
100
AcDbText
  0
TEXT
  5
ECD
100
AcDbEntity
  8
0
100
AcDbText
 10
56.610927
 20
-6.182185
 30
0.0
 40
0.1
  1
50 lb. CHECK VALVE
100
AcDbText
  0
LEADER
  5
ECE
100
AcDbEntity
  8
0
100
AcDbLeader
  3
STANDARD
 40
0.18
 41
0.18
 76
     2
 10
44.123612
 20
5.214147
 30
0.0
 10
47.216979
 20
5.214147
 30
0.0
 77
   256
211
-1.0
221
0.0000000000000002
231
0.0
213
0.0
223
-0.09
233
0.0
1001
ACAD
1000
DSTYLE
1002
{
1070
     5
1000

1070
    41
1040
0.5
1070
   342
1005
0
1002
}
  0
LEADER
  5
ECF
100
AcDbEntity
  8
0
100
AcDbLeader
  3
STANDARD
 40
0.18
 41
3.54
 76
     2
 10
30.063944
 20
3.693188
 30
0.0
 10
27.52876
 20
3.693188
 30
0.0
 77
   256
213
1.042591479621588
223
0.0324347715708106
233
0.0
1001
ACAD
1000
DSTYLE
1002
{
1070
     5
1000

1070
    41
1040
0.5
1070
   342
1005
0
1002
}
  0
LEADER
  5
ED0
100
AcDbEntity
  8
0
100
AcDbLeader
  3
STANDARD
 40
0.18
 41
3.54
 76
     2
 10
47.345843
 20
-0.661656
 30
0.0
 10
45.491726
 20
-2.390647
 30
0.0
 77
   256
211
0.7313537016191706
221
0.6819983600624986
231
0.0
213
0.7403826768775622
223
0.7347669695665418
233
0.0
1001
ACAD
1000
DSTYLE
1002
{
1070
     5
1000

1070
    41
1040
0.5
1070
   342
1005
0
1002
}
  0
LWPOLYLINE
  5
EE0
100
AcDbEntity
  8
0
  6
DASHED
100
AcDbPolyline
 90
        4
 70
     1
 43
0.0
 10
53.447863
 20
18.882211
 10
58.496786
 20
18.882211
 10
58.496786
 20
15.643779
 10
53.447863
 20
15.643779
  0
LWPOLYLINE
  5
EE1
100
AcDbEntity
  8
0
  6
DASHED
100
AcDbPolyline
 90
        4
 70
     1
 43
0.0
 10
53.011536
 20
-9.858878
 10
58.746116
 20
-9.858878
 10
58.746116
 20
-12.599091
 10
53.011536
 20
-12.599091
  0
TEXT
  5
EE2
100
AcDbEntity
  8
0
  6
DASHED
100
AcDbText
 10
53.416697
 20
19.162464
 30
0.0
 40
0.2
  1
OPTIONAL FUEL FILTER POSITION
100
AcDbText
  0
TEXT
  5
EE3
100
AcDbEntity
  8
0
  6
DASHED
100
AcDbText
 10
53.038869
 20
-13.234698
 30
0.0
 40
0.2
  1
OPTIONAL FUEL FILTER POSITION
100
AcDbText
  0
MTEXT
  5
F6F
100
AcDbEntity
  8
0
  6
DASHED
100
AcDbMText
 10
56.163317
 20
12.432739
 30
0.0
 40
0.2
 41
7.357653
 71
     1
 72
     5
  1
\fTimes New Roman|b0|i0|c0|p18;Kinsler Fuel Injection, Inc\P1834 Thunderbird\PTroy, MI 48084\P248-362-1145\Ppart #3156 is aluminum w/ -6 AN flare fittings \Psecondary bypass valve  w/ setpoint at 50psi\P$80.90
  0
ENDSEC
  0
SECTION
  2
OBJECTS
  0
DICTIONARY
  5
C
102
{ACAD_XDICTIONARY
360
F5F
102
}
100
AcDbDictionary
  3
ACAD_GROUP
350
D
  3
ACAD_LAYOUT
350
1A
  3
ACAD_MLINESTYLE
350
17
  3
ACAD_PLOTSETTINGS
350
19
  3
ACAD_PLOTSTYLENAME
350
E
  3
ACADDIM
350
410
  3
ACDBHEADERROUNDTRIPXREC
350
F3F
  3
ACDBVARIABLEDICTIONARY
350
2DF
  3
ASE_INDEX_DICTIONARY
350
799
  0
DICTIONARY
  5
F35
100
AcDbDictionary
280
     1
  3
ACAD_XREC_ROUNDTRIP
360
F36
  0
DICTIONARY
  5
F37
100
AcDbDictionary
280
     1
  3
ACAD_XREC_ROUNDTRIP
360
F38
  0
DICTIONARY
  5
F39
100
AcDbDictionary
280
     1
  3
ACAD_XREC_ROUNDTRIP
360
F3A
  0
DICTIONARY
  5
F33
100
AcDbDictionary
280
     1
  3
ACAD_XREC_ROUNDTRIP
360
F34
  0
DICTIONARY
  5
F3B
100
AcDbDictionary
280
     1
  3
ACAD_XREC_ROUNDTRIP
360
F3C
  0
DICTIONARY
  5
F31
100
AcDbDictionary
280
     1
  3
ACAD_XREC_ROUNDTRIP
360
F32
  0
DICTIONARY
  5
7A2
100
AcDbDictionary
280
     1
  3
ACAD_LAYOUTSELFREF
360
F66
  3
ACAD_XREC_ROUNDTRIP
360
F2E
  0
DICTIONARY
  5
7A4
100
AcDbDictionary
280
     1
  3
ACAD_LAYOUTSELFREF
360
F65
  3
ACAD_XREC_ROUNDTRIP
360
F2F
  0
DICTIONARY
  5
7A6
100
AcDbDictionary
280
     1
  3
ACAD_LAYOUTSELFREF
360
F67
  3
ACAD_XREC_ROUNDTRIP
360
F30
  0
DICTIONARY
  5
F5F
100
AcDbDictionary
280
     1
  3
ACAD_XREC_ROUNDTRIP
360
F60
  0
DICTIONARY
  5
D
102
{ACAD_REACTORS
330
C
102
}
100
AcDbDictionary
  0
DICTIONARY
  5
1A
102
{ACAD_XDICTIONARY
360
F63
102
}
102
{ACAD_REACTORS
330
C
102
}
100
AcDbDictionary
  3
LAYOUT1
350
1E
  3
LAYOUT2
350
26
  3
MODEL
350
22
  0
DICTIONARY
  5
17
102
{ACAD_XDICTIONARY
360
F61
102
}
102
{ACAD_REACTORS
330
C
102
}
100
AcDbDictionary
  3
STANDARD
350
18
  0
DICTIONARY
  5
19
102
{ACAD_REACTORS
330
C
102
}
100
AcDbDictionary
  0
ACAD_PROXY_OBJECT
  5
E
102
{ACAD_REACTORS
330
C
102
}
100
AcDbProxyObject
 90
      499
 91
      500
 93
       86
310
405010041939BDC9B585B0
350
F
340
F
 94
        0
  0
XRECORD
  5
410
102
{ACAD_REACTORS
330
C
102
}
100
AcDbXrecord
 90
   990106
  3

 60
     0
 61
     0
 62
     1
 63
     3
 64
     0
 65
     0
 66
     0
 67
     3
 68
     1
 69
     0
 70
     0
 71
     0
 72
     0
 40
0.0
170
     0
340
881
  0
DICTIONARY
  5
F3F
102
{ACAD_REACTORS
330
C
102
}
100
AcDbDictionary
  3
CEPSNTYPE
350
F49
  3
FINGERPRINTGUID
350
F4A
  3
HYPERLINKBASE
350
F42
  3
INSUNITS
350
F48
  3
LAYOUTDICT
350
F44
  3
LWETCUNION
350
F47
  3
PLOTSETDICT
350
F45
  3
PLOTSTYLNAMDICT
350
F46
  3
PSVPSCALE
350
F4C
  3
PUCSBASE
350
F4F
  3
PUCSORGBACK
350
F55
  3
PUCSORGBOTTOM
350
F51
  3
PUCSORGFRONT
350
F54
  3
PUCSORGLEFT
350
F52
  3
PUCSORGRIGHT
350
F53
  3
PUCSORGTOP
350
F50
  3
PUCSORTHOREF
350
F4D
  3
PUCSORTHOVIEW
350
F4E
  3
STYLESHEET
350
F43
  3
TSTACKALIGN
350
F40
  3
TSTACKSIZE
350
F41
  3
UCSBASE
350
F58
  3
UCSORGBACK
350
F5E
  3
UCSORGBOTTOM
350
F5A
  3
UCSORGFRONT
350
F5D
  3
UCSORGLEFT
350
F5B
  3
UCSORGRIGHT
350
F5C
  3
UCSORGTOP
350
F59
  3
UCSORTHOREF
350
F56
  3
UCSORTHOVIEW
350
F57
  3
VERSIONGUID
350
F4B
  0
DICTIONARY
  5
2DF
102
{ACAD_REACTORS
330
C
102
}
100
AcDbDictionary
  3
SORTENTS
350
2E0
  0
DICTIONARY
  5
799
102
{ACAD_XDICTIONARY
360
F68
102
}
102
{ACAD_REACTORS
330
C
102
}
100
AcDbDictionary
  3
ASEBLOCKHIERARCHYINDEXRECORD
350
79B
1001
DCO15
1040
1411126896.68
  0
XRECORD
  5
F36
102
{ACAD_REACTORS
330
F35
102
}
100
AcDbXrecord
102
EXTNAMES
  1
BYBLOCK
  2
ByBlock
  0
XRECORD
  5
F38
102
{ACAD_REACTORS
330
F37
102
}
100
AcDbXrecord
102
EXTNAMES
  1
BYLAYER
  2
ByLayer
  0
XRECORD
  5
F3A
102
{ACAD_REACTORS
330
F39
102
}
100
AcDbXrecord
102
EXTNAMES
  1
CONTINUOUS
  2
Continuous
  0
XRECORD
  5
F34
102
{ACAD_REACTORS
330
F33
102
}
100
AcDbXrecord
102
EXTNAMES
  1
DEFPOINTS
  2
Defpoints
102
PLOTBIT
280
     0
  0
XRECORD
  5
F3C
102
{ACAD_REACTORS
330
F3B
102
}
100
AcDbXrecord
102
EXTNAMES
  1
STANDARD
  2
Standard
  0
XRECORD
  5
F32
102
{ACAD_REACTORS
330
F31
102
}
100
AcDbXrecord
102
EXTNAMES
  1
STANDARD
  2
Standard
  0
XRECORD
  5
F66
102
{ACAD_REACTORS
330
7A2
102
}
100
AcDbXrecord
340
1F
  0
XRECORD
  5
F2E
102
{ACAD_REACTORS
330
7A2
102
}
100
AcDbXrecord
102
EXTNAMES
  1
*MODEL_SPACE
  2
*Model_Space
  0
XRECORD
  5
F65
102
{ACAD_REACTORS
330
7A4
102
}
100
AcDbXrecord
340
1B
  0
XRECORD
  5
F2F
102
{ACAD_REACTORS
330
7A4
102
}
100
AcDbXrecord
102
EXTNAMES
  1
*PAPER_SPACE
  2
*Paper_Space
  0
XRECORD
  5
F67
102
{ACAD_REACTORS
330
7A6
102
}
100
AcDbXrecord
340
23
  0
XRECORD
  5
F30
102
{ACAD_REACTORS
330
7A6
102
}
100
AcDbXrecord
102
EXTNAMES
  1
*PAPER_SPACE0
  2
*Paper_Space0
  0
XRECORD
  5
F60
102
{ACAD_REACTORS
330
F5F
102
}
100
AcDbXrecord
102
EXTNAMES
  1
ACADDIM
  2
AcadDim
  1
ACDBVARIABLEDICTIONARY
  2
AcDbVariableDictionary
  0
DICTIONARY
  5
F63
100
AcDbDictionary
280
     1
  3
ACAD_XREC_ROUNDTRIP
360
F64
  0
ACAD_PROXY_OBJECT
  5
1E
102
{ACAD_REACTORS
330
1A
102
}
100
AcDbProxyObject
 90
      499
 91
      502
 93
      964
310
90D4850204C617365724A657420342C00AAAAAA416AA591069074C61796F75743140501A800000000000000000000000000000000000000000000A1000000000000008902A6A6A10232D5E076BC5510408CB5781DAF154410232D5E076BC5510408CB5781DAF15C410232D5E076BC5710408CB5781DAF15C40
330
1B
330
0
340
0
340
0
 94
        0
  0
ACAD_PROXY_OBJECT
  5
26
102
{ACAD_REACTORS
330
1A
102
}
100
AcDbProxyObject
 90
      499
 91
      502
 93
      580
310
90D4850204C617365724A657420342C00AAAAAA416AA591069074C61796F75743240901A800000000000000000000000000000000000000000000A1000000000000008902A6A6AAAA4
330
23
330
0
340
0
340
0
 94
        0
  0
ACAD_PROXY_OBJECT
  5
22
102
{ACAD_REACTORS
330
1A
102
}
100
AcDbProxyObject
 90
      499
 91
      502
 93
     1620
310
91A48502044657369676E4A65742034353043202845202F204130292C0B8000000A038FB1340000000083BBB8C1000000000038FB1340000000003BBB8C1000000000072FB7A40000000302C1CDC501085573657231323837AA41090B7F25B4CAF2040181D9A028F978BB00BE0178D99191574024107B17F6A48D1024F84EA
310
F76CFB31440A03220C96D02EF20FC6783C49EAF7C6AC03D475D82F3869E101054D6F64656C901A800000000000000000000000000000000000000000000A1000000000000008902A6A6AAAA0
330
1F
330
0
340
0
340
0
 94
        0
  0
DICTIONARY
  5
F61
100
AcDbDictionary
280
     1
  3
ACAD_XREC_ROUNDTRIP
360
F62
  0
MLINESTYLE
  5
18
102
{ACAD_REACTORS
330
17
102
}
100
AcDbMlineStyle
  2
STANDARD
 70
     0
  3

 62
   256
 51
90.0
 52
90.0
 71
     2
 49
0.5
 62
   256
  6
BYLAYER
 49
-0.5
 62
   256
  6
BYLAYER
  0
ACAD_PROXY_OBJECT
  5
F
102
{ACAD_REACTORS
330
E
102
}
100
AcDbProxyObject
 90
      499
 91
      501
 93
        0
 94
        0
  0
XRECORD
  5
F49
102
{ACAD_REACTORS
330
F3F
102
}
100
AcDbXrecord
 90
        0
  0
XRECORD
  5
F4A
102
{ACAD_REACTORS
330
F3F
102
}
100
AcDbXrecord
  1
{077B122A-8CAB-11D5-8E0A-C919F2F9903B}
  0
XRECORD
  5
F42
102
{ACAD_REACTORS
330
F3F
102
}
100
AcDbXrecord
  1

  0
XRECORD
  5
F48
102
{ACAD_REACTORS
330
F3F
102
}
100
AcDbXrecord
 90
        1
  0
XRECORD
  5
F44
102
{ACAD_REACTORS
330
F3F
102
}
100
AcDbXrecord
340
1A
  0
XRECORD
  5
F47
102
{ACAD_REACTORS
330
F3F
102
}
100
AcDbXrecord
 90
    10781
  0
XRECORD
  5
F45
102
{ACAD_REACTORS
330
F3F
102
}
100
AcDbXrecord
340
19
  0
XRECORD
  5
F46
102
{ACAD_REACTORS
330
F3F
102
}
100
AcDbXrecord
340
E
  0
XRECORD
  5
F4C
102
{ACAD_REACTORS
330
F3F
102
}
100
AcDbXrecord
 40
0.0
  0
XRECORD
  5
F4F
102
{ACAD_REACTORS
330
F3F
102
}
100
AcDbXrecord
340
0
  0
XRECORD
  5
F55
102
{ACAD_REACTORS
330
F3F
102
}
100
AcDbXrecord
 10
0.0
 20
0.0
 30
0.0
  0
XRECORD
  5
F51
102
{ACAD_REACTORS
330
F3F
102
}
100
AcDbXrecord
 10
0.0
 20
0.0
 30
0.0
  0
XRECORD
  5
F54
102
{ACAD_REACTORS
330
F3F
102
}
100
AcDbXrecord
 10
0.0
 20
0.0
 30
0.0
  0
XRECORD
  5
F52
102
{ACAD_REACTORS
330
F3F
102
}
100
AcDbXrecord
 10
0.0
 20
0.0
 30
0.0
  0
XRECORD
  5
F53
102
{ACAD_REACTORS
330
F3F
102
}
100
AcDbXrecord
 10
0.0
 20
0.0
 30
0.0
  0
XRECORD
  5
F50
102
{ACAD_REACTORS
330
F3F
102
}
100
AcDbXrecord
 10
0.0
 20
0.0
 30
0.0
  0
XRECORD
  5
F4D
102
{ACAD_REACTORS
330
F3F
102
}
100
AcDbXrecord
340
0
  0
XRECORD
  5
F4E
102
{ACAD_REACTORS
330
F3F
102
}
100
AcDbXrecord
 70
     0
  0
XRECORD
  5
F43
102
{ACAD_REACTORS
330
F3F
102
}
100
AcDbXrecord
  1

  0
XRECORD
  5
F40
102
{ACAD_REACTORS
330
F3F
102
}
100
AcDbXrecord
 90
        1
  0
XRECORD
  5
F41
102
{ACAD_REACTORS
330
F3F
102
}
100
AcDbXrecord
 90
       70
  0
XRECORD
  5
F58
102
{ACAD_REACTORS
330
F3F
102
}
100
AcDbXrecord
340
0
  0
XRECORD
  5
F5E
102
{ACAD_REACTORS
330
F3F
102
}
100
AcDbXrecord
 10
0.0
 20
0.0
 30
0.0
  0
XRECORD
  5
F5A
102
{ACAD_REACTORS
330
F3F
102
}
100
AcDbXrecord
 10
0.0
 20
0.0
 30
0.0
  0
XRECORD
  5
F5D
102
{ACAD_REACTORS
330
F3F
102
}
100
AcDbXrecord
 10
0.0
 20
0.0
 30
0.0
  0
XRECORD
  5
F5B
102
{ACAD_REACTORS
330
F3F
102
}
100
AcDbXrecord
 10
0.0
 20
0.0
 30
0.0
  0
XRECORD
  5
F5C
102
{ACAD_REACTORS
330
F3F
102
}
100
AcDbXrecord
 10
0.0
 20
0.0
 30
0.0
  0
XRECORD
  5
F59
102
{ACAD_REACTORS
330
F3F
102
}
100
AcDbXrecord
 10
0.0
 20
0.0
 30
0.0
  0
XRECORD
  5
F56
102
{ACAD_REACTORS
330
F3F
102
}
100
AcDbXrecord
340
0
  0
XRECORD
  5
F57
102
{ACAD_REACTORS
330
F3F
102
}
100
AcDbXrecord
 70
     0
  0
XRECORD
  5
F4B
102
{ACAD_REACTORS
330
F3F
102
}
100
AcDbXrecord
  1
{54D63E0A-6982-11D6-8E0A-CE406C3F742A}
  0
DICTIONARYVAR
  5
2E0
102
{ACAD_REACTORS
330
2DF
102
}
100
DictionaryVariables
280
     0
  1
96
  0
DICTIONARY
  5
F68
100
AcDbDictionary
280
     1
  3
ACAD_XREC_ROUNDTRIP
360
F69
  0
XRECORD
  5
79B
102
{ACAD_REACTORS
330
799
102
}
100
AcDbXrecord
  0
XRECORD
  5
F64
102
{ACAD_REACTORS
330
F63
102
}
100
AcDbXrecord
102
EXTNAMES
  1
LAYOUT1
  2
Layout1
  1
LAYOUT2
  2
Layout2
  1
MODEL
  2
Model
  0
XRECORD
  5
F62
102
{ACAD_REACTORS
330
F61
102
}
100
AcDbXrecord
102
EXTNAMES
  1
STANDARD
  2
Standard
  0
XRECORD
  5
F69
102
{ACAD_REACTORS
330
F68
102
}
100
AcDbXrecord
102
EXTNAMES
  1
ASEBLOCKHIERARCHYINDEXRECORD
  2
ASEBlockHierarchyIndexRecord
  0
ENDSEC
  0
EOF
